ISO-10303-21;
HEADER;
FILE_DESCRIPTION (( 'STEP AP203' ),
    '1' );
FILE_NAME ('Web Model 15467_19746.step',
    '2022-03-22T19:44:10',
    ( '' ),
    ( '' ),
    'SwSTEP 2.0',
    'SolidWorks 2021',
    '' );
FILE_SCHEMA (( 'CONFIG_CONTROL_DESIGN' ));
ENDSEC;

DATA;
#1 = APPLICATION_CONTEXT ( 'configuration controlled 3d designs of mechanical parts and assemblies' ) ;
#2 = ORIENTED_EDGE ( 'NONE', *, *, #101, .F. ) ;
#3 = ADVANCED_FACE ( 'NONE', ( #113 ), #94, .T. ) ;
#4 = EDGE_LOOP ( 'NONE', ( #2, #167, #19, #42 ) ) ;
#5 = CC_DESIGN_DATE_AND_TIME_ASSIGNMENT ( #160, #16, ( #97 ) ) ;
#6 = ORIENTED_EDGE ( 'NONE', *, *, #90, .F. ) ;
#7 = APPLICATION_CONTEXT ( 'configuration controlled 3d designs of mechanical parts and assemblies' ) ;
#8 = CARTESIAN_POINT ( 'NONE',  ( 0.000000000000000000, 0.000000000000000000, 1.000000000000000000 ) ) ;
#9 = CARTESIAN_POINT ( 'NONE',  ( 0.000000000000000000, 0.000000000000000000, -1.000000000000000000 ) ) ;
#10 = CC_DESIGN_APPROVAL ( #29, ( #117 ) ) ;
#11 = PERSON_AND_ORGANIZATION_ROLE ( 'design_owner' ) ;
#12 = APPLICATION_PROTOCOL_DEFINITION ( 'international standard', 'config_control_design', 1994, #1 ) ;
#13 = APPROVAL_DATE_TIME ( #162, #118 ) ;
#14 = PERSON_AND_ORGANIZATION_ROLE ( 'creator' ) ;
#15 = CC_DESIGN_PERSON_AND_ORGANIZATION_ASSIGNMENT ( #142, #11, ( #120 ) ) ;
#16 = DATE_TIME_ROLE ( 'classification_date' ) ;
#17 = DATE_AND_TIME ( #28, #71 ) ;
#18 = AXIS2_PLACEMENT_3D ( 'NONE', #9, #72, #57 ) ;
#19 = ORIENTED_EDGE ( 'NONE', *, *, #90, .T. ) ;
#20 =( GEOMETRIC_REPRESENTATION_CONTEXT ( 3 ) GLOBAL_UNCERTAINTY_ASSIGNED_CONTEXT ( ( #132 ) ) GLOBAL_UNIT_ASSIGNED_CONTEXT ( ( #84, #47, #158 ) ) REPRESENTATION_CONTEXT ( 'NONE', 'WORKASPACE' ) );
#21 = CARTESIAN_POINT ( 'NONE',  ( -12.50000000000000000, 0.000000000000000000, 1.000000000000000000 ) ) ;
#22 = CARTESIAN_POINT ( 'NONE',  ( 12.50000000000000000, 1.530808498934191521E-15, 1.000000000000000000 ) ) ;
#23 = ADVANCED_FACE ( 'NONE', ( #153 ), #31, .T. ) ;
#24 = FACE_OUTER_BOUND ( 'NONE', #41, .T. ) ;
#25 = APPLICATION_PROTOCOL_DEFINITION ( 'international standard', 'config_control_design', 1994, #7 ) ;
#26 = CARTESIAN_POINT ( 'NONE',  ( -12.50000000000000000, 0.000000000000000000, 1.000000000000000000 ) ) ;
#27 = DATE_TIME_ROLE ( 'creation_date' ) ;
#28 = CALENDAR_DATE ( 2022, 22, 3 ) ;
#29 = APPROVAL ( #38, 'UNSPECIFIED' ) ;
#30 = VERTEX_POINT ( 'NONE', #21 ) ;
#31 = CYLINDRICAL_SURFACE ( 'NONE', #109, 12.50000000000000000 ) ;
#32 = APPROVAL_PERSON_ORGANIZATION ( #74, #29, #145 ) ;
#33 = DIRECTION ( 'NONE',  ( -1.000000000000000000, 0.000000000000000000, 0.000000000000000000 ) ) ;
#34 = DIRECTION ( 'NONE',  ( 0.000000000000000000, 0.000000000000000000, 1.000000000000000000 ) ) ;
#35 = DIRECTION ( 'NONE',  ( 0.000000000000000000, 0.000000000000000000, 1.000000000000000000 ) ) ;
#36 = EDGE_CURVE ( 'NONE', #55, #165, #138, .T. ) ;
#37 = PLANE ( 'NONE',  #175 ) ;
#38 = APPROVAL_STATUS ( 'not_yet_approved' ) ;
#39 = CC_DESIGN_APPROVAL ( #118, ( #97 ) ) ;
#40 = PERSON_AND_ORGANIZATION_ROLE ( 'classification_officer' ) ;
#41 = EDGE_LOOP ( 'NONE', ( #79, #6 ) ) ;
#42 = ORIENTED_EDGE ( 'NONE', *, *, #69, .F. ) ;
#43 = AXIS2_PLACEMENT_3D ( 'NONE', #150, #151, #134 ) ;
#44 = LOCAL_TIME ( 15, 44, 10.00000000000000000, #65 ) ;
#45 = DIRECTION ( 'NONE',  ( -0.000000000000000000, -0.000000000000000000, -1.000000000000000000 ) ) ;
#46 = FACE_OUTER_BOUND ( 'NONE', #110, .T. ) ;
#47 =( NAMED_UNIT ( * ) PLANE_ANGLE_UNIT ( ) SI_UNIT ( $, .RADIAN. ) );
#48 = PERSON_AND_ORGANIZATION ( #59, #123 ) ;
#49 = APPROVAL_ROLE ( '' ) ;
#50 = PERSON_AND_ORGANIZATION ( #59, #123 ) ;
#51 = LOCAL_TIME ( 15, 44, 10.00000000000000000, #104 ) ;
#52 = SHAPE_DEFINITION_REPRESENTATION ( #163, #166 ) ;
#53 = ORIENTED_EDGE ( 'NONE', *, *, #107, .T. ) ;
#54 = VECTOR ( 'NONE', #100, 1000.000000000000000 ) ;
#55 = VERTEX_POINT ( 'NONE', #143 ) ;
#56 = ADVANCED_FACE ( 'NONE', ( #46 ), #125, .T. ) ;
#57 = DIRECTION ( 'NONE',  ( 1.000000000000000000, 0.000000000000000000, 0.000000000000000000 ) ) ;
#58 = CC_DESIGN_PERSON_AND_ORGANIZATION_ASSIGNMENT ( #161, #89, ( #157 ) ) ;
#59 = PERSON ( 'UNSPECIFIED', 'UNSPECIFIED', 'UNSPECIFIED', ('UNSPECIFIED'), ('UNSPECIFIED'), ('UNSPECIFIED') ) ;
#60 = CARTESIAN_POINT ( 'NONE',  ( -12.50000000000000000, 0.000000000000000000, -1.000000000000000000 ) ) ;
#61 = CIRCLE ( 'NONE', #18, 12.50000000000000000 ) ;
#62 = APPROVAL_STATUS ( 'not_yet_approved' ) ;
#63 = DATE_AND_TIME ( #159, #66 ) ;
#64 = VECTOR ( 'NONE', #45, 1000.000000000000000 ) ;
#65 = COORDINATED_UNIVERSAL_TIME_OFFSET ( 5, 0, .BEHIND. ) ;
#66 = LOCAL_TIME ( 15, 44, 10.00000000000000000, #103 ) ;
#67 = DIRECTION ( 'NONE',  ( 0.000000000000000000, 0.000000000000000000, 1.000000000000000000 ) ) ;
#68 = CARTESIAN_POINT ( 'NONE',  ( 0.000000000000000000, 0.000000000000000000, -1.000000000000000000 ) ) ;
#69 = EDGE_CURVE ( 'NONE', #30, #149, #121, .T. ) ;
#70 = PERSON_AND_ORGANIZATION ( #59, #123 ) ;
#71 = LOCAL_TIME ( 15, 44, 10.00000000000000000, #122 ) ;
#72 = DIRECTION ( 'NONE',  ( 0.000000000000000000, 0.000000000000000000, 1.000000000000000000 ) ) ;
#73 = CIRCLE ( 'NONE', #105, 12.50000000000000000 ) ;
#74 = PERSON_AND_ORGANIZATION ( #59, #123 ) ;
#75 = CC_DESIGN_PERSON_AND_ORGANIZATION_ASSIGNMENT ( #50, #130, ( #117 ) ) ;
#76 = MANIFOLD_SOLID_BREP ( 'Boss-Extrude1', #127 ) ;
#77 = DESIGN_CONTEXT ( 'detailed design', #7, 'design' ) ;
#78 = APPROVAL_STATUS ( 'not_yet_approved' ) ;
#79 = ORIENTED_EDGE ( 'NONE', *, *, #107, .F. ) ;
#80 = PRODUCT_RELATED_PRODUCT_CATEGORY ( 'detail', '', ( #120 ) ) ;
#81 = APPROVAL_PERSON_ORGANIZATION ( #70, #124, #119 ) ;
#82 = CARTESIAN_POINT ( 'NONE',  ( 0.000000000000000000, 0.000000000000000000, 1.000000000000000000 ) ) ;
#83 = DIRECTION ( 'NONE',  ( 1.000000000000000000, 0.000000000000000000, 0.000000000000000000 ) ) ;
#84 =( LENGTH_UNIT ( ) NAMED_UNIT ( * ) SI_UNIT ( .MILLI., .METRE. ) );
#85 = MECHANICAL_CONTEXT ( 'NONE', #1, 'mechanical' ) ;
#86 = DIRECTION ( 'NONE',  ( 1.000000000000000000, 0.000000000000000000, 0.000000000000000000 ) ) ;
#87 = CIRCLE ( 'NONE', #114, 12.50000000000000000 ) ;
#88 = CIRCLE ( 'NONE', #152, 12.50000000000000000 ) ;
#89 = PERSON_AND_ORGANIZATION_ROLE ( 'creator' ) ;
#90 = EDGE_CURVE ( 'NONE', #165, #149, #73, .T. ) ;
#91 = LOCAL_TIME ( 15, 44, 10.00000000000000000, #171 ) ;
#92 = APPROVAL_DATE_TIME ( #63, #124 ) ;
#93 = DIRECTION ( 'NONE',  ( -0.000000000000000000, -0.000000000000000000, -1.000000000000000000 ) ) ;
#94 = CYLINDRICAL_SURFACE ( 'NONE', #43, 12.50000000000000000 ) ;
#95 = CC_DESIGN_PERSON_AND_ORGANIZATION_ASSIGNMENT ( #48, #14, ( #117 ) ) ;
#96 = ORIENTED_EDGE ( 'NONE', *, *, #36, .F. ) ;
#97 = SECURITY_CLASSIFICATION ( '', '', #147 ) ;
#98 = DIRECTION ( 'NONE',  ( 1.000000000000000000, 0.000000000000000000, 0.000000000000000000 ) ) ;
#99 = DIRECTION ( 'NONE',  ( 0.000000000000000000, 0.000000000000000000, 1.000000000000000000 ) ) ;
#100 = DIRECTION ( 'NONE',  ( -0.000000000000000000, -0.000000000000000000, -1.000000000000000000 ) ) ;
#101 = EDGE_CURVE ( 'NONE', #55, #30, #87, .T. ) ;
#102 = CARTESIAN_POINT ( 'NONE',  ( 12.50000000000000000, 1.530808498934191521E-15, -1.000000000000000000 ) ) ;
#103 = COORDINATED_UNIVERSAL_TIME_OFFSET ( 5, 0, .BEHIND. ) ;
#104 = COORDINATED_UNIVERSAL_TIME_OFFSET ( 5, 0, .BEHIND. ) ;
#105 = AXIS2_PLACEMENT_3D ( 'NONE', #68, #99, #86 ) ;
#106 = DATE_AND_TIME ( #164, #51 ) ;
#107 = EDGE_CURVE ( 'NONE', #149, #165, #61, .T. ) ;
#108 = CC_DESIGN_APPROVAL ( #124, ( #157 ) ) ;
#109 = AXIS2_PLACEMENT_3D ( 'NONE', #82, #93, #33 ) ;
#110 = EDGE_LOOP ( 'NONE', ( #133, #111 ) ) ;
#111 = ORIENTED_EDGE ( 'NONE', *, *, #101, .T. ) ;
#112 = EDGE_CURVE ( 'NONE', #30, #55, #88, .T. ) ;
#113 = FACE_OUTER_BOUND ( 'NONE', #4, .T. ) ;
#114 = AXIS2_PLACEMENT_3D ( 'NONE', #155, #170, #98 ) ;
#115 = CARTESIAN_POINT ( 'NONE',  ( 0.000000000000000000, 0.000000000000000000, 0.000000000000000000 ) ) ;
#116 = DIRECTION ( 'NONE',  ( 0.000000000000000000, 0.000000000000000000, 1.000000000000000000 ) ) ;
#117 = PRODUCT_DEFINITION_FORMATION_WITH_SPECIFIED_SOURCE ( 'ANY', '', #120, .NOT_KNOWN. ) ;
#118 = APPROVAL ( #78, 'UNSPECIFIED' ) ;
#119 = APPROVAL_ROLE ( '' ) ;
#120 = PRODUCT ( 'Web Model 15467_19746', 'Web Model 15467_19746', '', ( #85 ) ) ;
#121 = LINE ( 'NONE', #26, #64 ) ;
#122 = COORDINATED_UNIVERSAL_TIME_OFFSET ( 5, 0, .BEHIND. ) ;
#123 = ORGANIZATION ( 'UNSPECIFIED', 'UNSPECIFIED', '' ) ;
#124 = APPROVAL ( #62, 'UNSPECIFIED' ) ;
#125 = PLANE ( 'NONE',  #137 ) ;
#126 = CARTESIAN_POINT ( 'NONE',  ( 0.000000000000000000, 0.000000000000000000, 1.000000000000000000 ) ) ;
#127 = CLOSED_SHELL ( 'NONE', ( #3, #23, #56, #140 ) ) ;
#128 = DIRECTION ( 'NONE',  ( 1.000000000000000000, 0.000000000000000000, -0.000000000000000000 ) ) ;
#129 = DIRECTION ( 'NONE',  ( 1.000000000000000000, 0.000000000000000000, -0.000000000000000000 ) ) ;
#130 = PERSON_AND_ORGANIZATION_ROLE ( 'design_supplier' ) ;
#131 = APPROVAL_DATE_TIME ( #17, #29 ) ;
#132 = UNCERTAINTY_MEASURE_WITH_UNIT (LENGTH_MEASURE( 1.000000000000000082E-05 ), #84, 'distance_accuracy_value', 'NONE');
#133 = ORIENTED_EDGE ( 'NONE', *, *, #112, .T. ) ;
#134 = DIRECTION ( 'NONE',  ( -1.000000000000000000, 0.000000000000000000, 0.000000000000000000 ) ) ;
#135 = ORIENTED_EDGE ( 'NONE', *, *, #112, .F. ) ;
#136 = EDGE_LOOP ( 'NONE', ( #96, #135, #169, #53 ) ) ;
#137 = AXIS2_PLACEMENT_3D ( 'NONE', #8, #116, #128 ) ;
#138 = LINE ( 'NONE', #22, #54 ) ;
#139 = DIRECTION ( 'NONE',  ( 1.000000000000000000, 0.000000000000000000, 0.000000000000000000 ) ) ;
#140 = ADVANCED_FACE ( 'NONE', ( #24 ), #37, .F. ) ;
#141 = CC_DESIGN_SECURITY_CLASSIFICATION ( #97, ( #117 ) ) ;
#142 = PERSON_AND_ORGANIZATION ( #59, #123 ) ;
#143 = CARTESIAN_POINT ( 'NONE',  ( 12.50000000000000000, 1.530808498934191521E-15, 1.000000000000000000 ) ) ;
#144 = APPROVAL_PERSON_ORGANIZATION ( #172, #118, #49 ) ;
#145 = APPROVAL_ROLE ( '' ) ;
#146 = CC_DESIGN_PERSON_AND_ORGANIZATION_ASSIGNMENT ( #174, #40, ( #97 ) ) ;
#147 = SECURITY_CLASSIFICATION_LEVEL ( 'unclassified' ) ;
#148 = CALENDAR_DATE ( 2022, 22, 3 ) ;
#149 = VERTEX_POINT ( 'NONE', #60 ) ;
#150 = CARTESIAN_POINT ( 'NONE',  ( 0.000000000000000000, 0.000000000000000000, 1.000000000000000000 ) ) ;
#151 = DIRECTION ( 'NONE',  ( -0.000000000000000000, -0.000000000000000000, -1.000000000000000000 ) ) ;
#152 = AXIS2_PLACEMENT_3D ( 'NONE', #126, #34, #83 ) ;
#153 = FACE_OUTER_BOUND ( 'NONE', #136, .T. ) ;
#154 = CARTESIAN_POINT ( 'NONE',  ( 0.000000000000000000, 0.000000000000000000, -1.000000000000000000 ) ) ;
#155 = CARTESIAN_POINT ( 'NONE',  ( 0.000000000000000000, 0.000000000000000000, 1.000000000000000000 ) ) ;
#156 = CC_DESIGN_DATE_AND_TIME_ASSIGNMENT ( #106, #27, ( #157 ) ) ;
#157 = PRODUCT_DEFINITION ( 'UNKNOWN', '', #117, #77 ) ;
#158 =( NAMED_UNIT ( * ) SI_UNIT ( $, .STERADIAN. ) SOLID_ANGLE_UNIT ( ) );
#159 = CALENDAR_DATE ( 2022, 22, 3 ) ;
#160 = DATE_AND_TIME ( #173, #44 ) ;
#161 = PERSON_AND_ORGANIZATION ( #59, #123 ) ;
#162 = DATE_AND_TIME ( #148, #91 ) ;
#163 = PRODUCT_DEFINITION_SHAPE ( 'NONE', 'NONE',  #157 ) ;
#164 = CALENDAR_DATE ( 2022, 22, 3 ) ;
#165 = VERTEX_POINT ( 'NONE', #102 ) ;
#166 = ADVANCED_BREP_SHAPE_REPRESENTATION ( 'Web Model 15467_19746', ( #76, #168 ), #20 ) ;
#167 = ORIENTED_EDGE ( 'NONE', *, *, #36, .T. ) ;
#168 = AXIS2_PLACEMENT_3D ( 'NONE', #115, #67, #139 ) ;
#169 = ORIENTED_EDGE ( 'NONE', *, *, #69, .T. ) ;
#170 = DIRECTION ( 'NONE',  ( 0.000000000000000000, 0.000000000000000000, 1.000000000000000000 ) ) ;
#171 = COORDINATED_UNIVERSAL_TIME_OFFSET ( 5, 0, .BEHIND. ) ;
#172 = PERSON_AND_ORGANIZATION ( #59, #123 ) ;
#173 = CALENDAR_DATE ( 2022, 22, 3 ) ;
#174 = PERSON_AND_ORGANIZATION ( #59, #123 ) ;
#175 = AXIS2_PLACEMENT_3D ( 'NONE', #154, #35, #129 ) ;
ENDSEC;
END-ISO-10303-21;
