ISO-10303-21;
HEADER;
FILE_DESCRIPTION (( 'STEP AP203' ),
    '1' );
FILE_NAME ('Web Model 46104_48930.step',
    '2017-03-01T20:56:25',
    ( '' ),
    ( '' ),
    'SwSTEP 2.0',
    'SolidWorks 2016',
    '' );
FILE_SCHEMA (( 'CONFIG_CONTROL_DESIGN' ));
ENDSEC;

DATA;
#1 = PERSON_AND_ORGANIZATION_ROLE ( 'design_supplier' ) ;
#2 = DIRECTION ( 'NONE',  ( 0.0000000000000000000, 0.0000000000000000000, 1.000000000000000000 ) ) ;
#3 = DIRECTION ( 'NONE',  ( 0.0000000000000000000, 0.0000000000000000000, 1.000000000000000000 ) ) ;
#4 = AXIS2_PLACEMENT_3D ( 'NONE', #10, #45, #47 ) ;
#5 = DIRECTION ( 'NONE',  ( 0.0000000000000000000, 0.0000000000000000000, 1.000000000000000000 ) ) ;
#6 = CARTESIAN_POINT ( 'NONE',  ( 0.0000000000000000000, 0.0000000000000000000, 1.000000000000000000 ) ) ;
#7 = PRODUCT_RELATED_PRODUCT_CATEGORY ( 'detail', '', ( #143 ) ) ;
#8 = APPLICATION_CONTEXT ( 'configuration controlled 3d designs of mechanical parts and assemblies' ) ;
#9 = DATE_TIME_ROLE ( 'creation_date' ) ;
#10 = CARTESIAN_POINT ( 'NONE',  ( 0.0000000000000000000, 0.0000000000000000000, 0.0000000000000000000 ) ) ;
#11 = APPROVAL_DATE_TIME ( #42, #140 ) ;
#12 = SECURITY_CLASSIFICATION_LEVEL ( 'unclassified' ) ;
#13 = APPROVAL_PERSON_ORGANIZATION ( #49, #140, #75 ) ;
#14 = DIRECTION ( 'NONE',  ( 1.000000000000000000, 0.0000000000000000000, 0.0000000000000000000 ) ) ;
#15 = DIRECTION ( 'NONE',  ( 1.000000000000000000, 0.0000000000000000000, 0.0000000000000000000 ) ) ;
#16 = DIRECTION ( 'NONE',  ( -0.0000000000000000000, -0.0000000000000000000, -1.000000000000000000 ) ) ;
#17 = EDGE_CURVE ( 'NONE', #22, #64, #131, .T. ) ;
#18 = VERTEX_POINT ( 'NONE', #163 ) ;
#19 = COORDINATED_UNIVERSAL_TIME_OFFSET ( 5, 0, .BEHIND. ) ;
#20 = AXIS2_PLACEMENT_3D ( 'NONE', #36, #119, #144 ) ;
#21 = PERSON_AND_ORGANIZATION_ROLE ( 'design_owner' ) ;
#22 = VERTEX_POINT ( 'NONE', #124 ) ;
#23 = FACE_OUTER_BOUND ( 'NONE', #91, .T. ) ;
#24 = APPROVAL_PERSON_ORGANIZATION ( #27, #80, #100 ) ;
#25 = APPROVAL_STATUS ( 'not_yet_approved' ) ;
#26 = EDGE_CURVE ( 'NONE', #18, #127, #94, .T. ) ;
#27 = PERSON_AND_ORGANIZATION ( #154, #164 ) ;
#28 = APPROVAL ( #65, 'UNSPECIFIED' ) ;
#29 = PLANE ( 'NONE',  #142 ) ;
#30 = DIRECTION ( 'NONE',  ( -0.0000000000000000000, -0.0000000000000000000, -1.000000000000000000 ) ) ;
#31 = DATE_AND_TIME ( #156, #32 ) ;
#32 = LOCAL_TIME ( 15, 56, 25.00000000000000000, #62 ) ;
#33 = COORDINATED_UNIVERSAL_TIME_OFFSET ( 5, 0, .BEHIND. ) ;
#34 = CALENDAR_DATE ( 2017, 1, 3 ) ;
#35 = CARTESIAN_POINT ( 'NONE',  ( 0.0000000000000000000, 0.0000000000000000000, 0.0000000000000000000 ) ) ;
#36 = CARTESIAN_POINT ( 'NONE',  ( 0.0000000000000000000, 0.0000000000000000000, 1.000000000000000000 ) ) ;
#37 = EDGE_CURVE ( 'NONE', #22, #18, #104, .T. ) ;
#38 = CC_DESIGN_APPROVAL ( #28, ( #73 ) ) ;
#39 = PLANE ( 'NONE',  #4 ) ;
#40 = DIRECTION ( 'NONE',  ( -1.000000000000000000, 0.0000000000000000000, 0.0000000000000000000 ) ) ;
#41 = EDGE_CURVE ( 'NONE', #127, #18, #107, .T. ) ;
#42 = DATE_AND_TIME ( #85, #121 ) ;
#43 = CC_DESIGN_PERSON_AND_ORGANIZATION_ASSIGNMENT ( #114, #158, ( #73 ) ) ;
#44 = AXIS2_PLACEMENT_3D ( 'NONE', #35, #82, #133 ) ;
#45 = DIRECTION ( 'NONE',  ( 0.0000000000000000000, 0.0000000000000000000, 1.000000000000000000 ) ) ;
#46 = ADVANCED_FACE ( 'NONE', ( #70 ), #29, .T. ) ;
#47 = DIRECTION ( 'NONE',  ( 1.000000000000000000, 0.0000000000000000000, -0.0000000000000000000 ) ) ;
#48 = ORIENTED_EDGE ( 'NONE', *, *, #53, .F. ) ;
#49 = PERSON_AND_ORGANIZATION ( #154, #164 ) ;
#50 = EDGE_LOOP ( 'NONE', ( #170, #125, #83, #128 ) ) ;
#51 = DATE_AND_TIME ( #90, #123 ) ;
#52 = PERSON_AND_ORGANIZATION_ROLE ( 'classification_officer' ) ;
#53 = EDGE_CURVE ( 'NONE', #64, #22, #171, .T. ) ;
#54 = ORIENTED_EDGE ( 'NONE', *, *, #37, .F. ) ;
#55 = FACE_OUTER_BOUND ( 'NONE', #50, .T. ) ;
#56 = CARTESIAN_POINT ( 'NONE',  ( 50.79999999999999700, 6.221205739668553700E-015, 0.0000000000000000000 ) ) ;
#57 = CC_DESIGN_DATE_AND_TIME_ASSIGNMENT ( #51, #9, ( #73 ) ) ;
#58 = CARTESIAN_POINT ( 'NONE',  ( 0.0000000000000000000, 0.0000000000000000000, 1.000000000000000000 ) ) ;
#59 = CC_DESIGN_PERSON_AND_ORGANIZATION_ASSIGNMENT ( #60, #21, ( #143 ) ) ;
#60 = PERSON_AND_ORGANIZATION ( #154, #164 ) ;
#61 = LINE ( 'NONE', #77, #130 ) ;
#62 = COORDINATED_UNIVERSAL_TIME_OFFSET ( 5, 0, .BEHIND. ) ;
#63 = ADVANCED_BREP_SHAPE_REPRESENTATION ( 'Web Model 46104_48930', ( #99, #44 ), #149 ) ;
#64 = VERTEX_POINT ( 'NONE', #168 ) ;
#65 = APPROVAL_STATUS ( 'not_yet_approved' ) ;
#66 = ORIENTED_EDGE ( 'NONE', *, *, #41, .F. ) ;
#67 = APPLICATION_CONTEXT ( 'configuration controlled 3d designs of mechanical parts and assemblies' ) ;
#68 = EDGE_CURVE ( 'NONE', #64, #127, #61, .T. ) ;
#69 = FACE_OUTER_BOUND ( 'NONE', #162, .T. ) ;
#70 = FACE_OUTER_BOUND ( 'NONE', #161, .T. ) ;
#71 = PRODUCT_DEFINITION_FORMATION_WITH_SPECIFIED_SOURCE ( 'ANY', '', #143, .NOT_KNOWN. ) ;
#72 = PERSON_AND_ORGANIZATION ( #154, #164 ) ;
#73 = PRODUCT_DEFINITION ( 'UNKNOWN', '', #71, #95 ) ;
#74 = DATE_AND_TIME ( #34, #110 ) ;
#75 = APPROVAL_ROLE ( '' ) ;
#76 = DIRECTION ( 'NONE',  ( -0.0000000000000000000, -0.0000000000000000000, -1.000000000000000000 ) ) ;
#77 = CARTESIAN_POINT ( 'NONE',  ( 50.79999999999999700, 6.221205739668553700E-015, 1.000000000000000000 ) ) ;
#78 = APPROVAL_DATE_TIME ( #74, #28 ) ;
#79 = AXIS2_PLACEMENT_3D ( 'NONE', #102, #3, #141 ) ;
#80 = APPROVAL ( #145, 'UNSPECIFIED' ) ;
#81 = APPROVAL_ROLE ( '' ) ;
#82 = DIRECTION ( 'NONE',  ( 0.0000000000000000000, 0.0000000000000000000, 1.000000000000000000 ) ) ;
#83 = ORIENTED_EDGE ( 'NONE', *, *, #37, .T. ) ;
#84 = AXIS2_PLACEMENT_3D ( 'NONE', #150, #139, #15 ) ;
#85 = CALENDAR_DATE ( 2017, 1, 3 ) ;
#86 = ADVANCED_FACE ( 'NONE', ( #55 ), #93, .T. ) ;
#87 = CC_DESIGN_APPROVAL ( #80, ( #71 ) ) ;
#88 = DIRECTION ( 'NONE',  ( 1.000000000000000000, 0.0000000000000000000, 0.0000000000000000000 ) ) ;
#89 = CARTESIAN_POINT ( 'NONE',  ( -50.79999999999999700, 0.0000000000000000000, 1.000000000000000000 ) ) ;
#90 = CALENDAR_DATE ( 2017, 1, 3 ) ;
#91 = EDGE_LOOP ( 'NONE', ( #48, #129, #159, #54 ) ) ;
#92 = DATE_AND_TIME ( #126, #160 ) ;
#93 = CYLINDRICAL_SURFACE ( 'NONE', #172, 50.79999999999999700 ) ;
#94 = CIRCLE ( 'NONE', #84, 50.79999999999999700 ) ;
#95 = DESIGN_CONTEXT ( 'detailed design', #8, 'design' ) ;
#96 = APPLICATION_PROTOCOL_DEFINITION ( 'international standard', 'config_control_design', 1994, #67 ) ;
#97 = VECTOR ( 'NONE', #16, 1000.000000000000000 ) ;
#98 = CC_DESIGN_PERSON_AND_ORGANIZATION_ASSIGNMENT ( #169, #115, ( #71 ) ) ;
#99 = MANIFOLD_SOLID_BREP ( 'Boss-Extrude1', #101 ) ;
#100 = APPROVAL_ROLE ( '' ) ;
#101 = CLOSED_SHELL ( 'NONE', ( #175, #86, #46, #173 ) ) ;
#102 = CARTESIAN_POINT ( 'NONE',  ( 0.0000000000000000000, 0.0000000000000000000, 1.000000000000000000 ) ) ;
#103 = CYLINDRICAL_SURFACE ( 'NONE', #20, 50.79999999999999700 ) ;
#104 = LINE ( 'NONE', #89, #97 ) ;
#105 = CARTESIAN_POINT ( 'NONE',  ( 0.0000000000000000000, 0.0000000000000000000, 0.0000000000000000000 ) ) ;
#106 = ORIENTED_EDGE ( 'NONE', *, *, #26, .F. ) ;
#107 = CIRCLE ( 'NONE', #118, 50.79999999999999700 ) ;
#108 = CC_DESIGN_PERSON_AND_ORGANIZATION_ASSIGNMENT ( #72, #1, ( #71 ) ) ;
#109 = ORIENTED_EDGE ( 'NONE', *, *, #17, .T. ) ;
#110 = LOCAL_TIME ( 15, 56, 25.00000000000000000, #174 ) ;
#111 =( NAMED_UNIT ( * ) SI_UNIT ( $, .STERADIAN. ) SOLID_ANGLE_UNIT ( ) );
#112 = MECHANICAL_CONTEXT ( 'NONE', #67, 'mechanical' ) ;
#113 = PERSON_AND_ORGANIZATION ( #154, #164 ) ;
#114 = PERSON_AND_ORGANIZATION ( #154, #164 ) ;
#115 = PERSON_AND_ORGANIZATION_ROLE ( 'creator' ) ;
#116 = DIRECTION ( 'NONE',  ( 1.000000000000000000, 0.0000000000000000000, -0.0000000000000000000 ) ) ;
#117 = SECURITY_CLASSIFICATION ( '', '', #12 ) ;
#118 = AXIS2_PLACEMENT_3D ( 'NONE', #105, #2, #88 ) ;
#119 = DIRECTION ( 'NONE',  ( -0.0000000000000000000, -0.0000000000000000000, -1.000000000000000000 ) ) ;
#120 = APPLICATION_PROTOCOL_DEFINITION ( 'international standard', 'config_control_design', 1994, #8 ) ;
#121 = LOCAL_TIME ( 15, 56, 25.00000000000000000, #152 ) ;
#122 = CC_DESIGN_PERSON_AND_ORGANIZATION_ASSIGNMENT ( #148, #52, ( #117 ) ) ;
#123 = LOCAL_TIME ( 15, 56, 25.00000000000000000, #33 ) ;
#124 = CARTESIAN_POINT ( 'NONE',  ( -50.79999999999999700, 0.0000000000000000000, 1.000000000000000000 ) ) ;
#125 = ORIENTED_EDGE ( 'NONE', *, *, #17, .F. ) ;
#126 = CALENDAR_DATE ( 2017, 1, 3 ) ;
#127 = VERTEX_POINT ( 'NONE', #56 ) ;
#128 = ORIENTED_EDGE ( 'NONE', *, *, #26, .T. ) ;
#129 = ORIENTED_EDGE ( 'NONE', *, *, #68, .T. ) ;
#130 = VECTOR ( 'NONE', #76, 1000.000000000000000 ) ;
#131 = CIRCLE ( 'NONE', #79, 50.79999999999999700 ) ;
#132 = CC_DESIGN_DATE_AND_TIME_ASSIGNMENT ( #92, #147, ( #117 ) ) ;
#133 = DIRECTION ( 'NONE',  ( 1.000000000000000000, 0.0000000000000000000, 0.0000000000000000000 ) ) ;
#134 =( NAMED_UNIT ( * ) PLANE_ANGLE_UNIT ( ) SI_UNIT ( $, .RADIAN. ) );
#135 = SHAPE_DEFINITION_REPRESENTATION ( #138, #63 ) ;
#136 = AXIS2_PLACEMENT_3D ( 'NONE', #58, #5, #14 ) ;
#137 = APPROVAL_DATE_TIME ( #31, #80 ) ;
#138 = PRODUCT_DEFINITION_SHAPE ( 'NONE', 'NONE',  #73 ) ;
#139 = DIRECTION ( 'NONE',  ( 0.0000000000000000000, 0.0000000000000000000, 1.000000000000000000 ) ) ;
#140 = APPROVAL ( #25, 'UNSPECIFIED' ) ;
#141 = DIRECTION ( 'NONE',  ( 1.000000000000000000, 0.0000000000000000000, 0.0000000000000000000 ) ) ;
#142 = AXIS2_PLACEMENT_3D ( 'NONE', #151, #166, #116 ) ;
#143 = PRODUCT ( 'Web Model 46104_48930', 'Web Model 46104_48930', '', ( #112 ) ) ;
#144 = DIRECTION ( 'NONE',  ( -1.000000000000000000, 0.0000000000000000000, 0.0000000000000000000 ) ) ;
#145 = APPROVAL_STATUS ( 'not_yet_approved' ) ;
#146 = CC_DESIGN_APPROVAL ( #140, ( #117 ) ) ;
#147 = DATE_TIME_ROLE ( 'classification_date' ) ;
#148 = PERSON_AND_ORGANIZATION ( #154, #164 ) ;
#149 =( GEOMETRIC_REPRESENTATION_CONTEXT ( 3 ) GLOBAL_UNCERTAINTY_ASSIGNED_CONTEXT ( ( #155 ) ) GLOBAL_UNIT_ASSIGNED_CONTEXT ( ( #157, #134, #111 ) ) REPRESENTATION_CONTEXT ( 'NONE', 'WORKASPACE' ) );
#150 = CARTESIAN_POINT ( 'NONE',  ( 0.0000000000000000000, 0.0000000000000000000, 0.0000000000000000000 ) ) ;
#151 = CARTESIAN_POINT ( 'NONE',  ( 0.0000000000000000000, 0.0000000000000000000, 1.000000000000000000 ) ) ;
#152 = COORDINATED_UNIVERSAL_TIME_OFFSET ( 5, 0, .BEHIND. ) ;
#153 = CC_DESIGN_SECURITY_CLASSIFICATION ( #117, ( #71 ) ) ;
#154 = PERSON ( 'UNSPECIFIED', 'UNSPECIFIED', 'UNSPECIFIED', ('UNSPECIFIED'), ('UNSPECIFIED'), ('UNSPECIFIED') ) ;
#155 = UNCERTAINTY_MEASURE_WITH_UNIT (LENGTH_MEASURE( 1.000000000000000100E-005 ), #157, 'distance_accuracy_value', 'NONE');
#156 = CALENDAR_DATE ( 2017, 1, 3 ) ;
#157 =( LENGTH_UNIT ( ) NAMED_UNIT ( * ) SI_UNIT ( .MILLI., .METRE. ) );
#158 = PERSON_AND_ORGANIZATION_ROLE ( 'creator' ) ;
#159 = ORIENTED_EDGE ( 'NONE', *, *, #41, .T. ) ;
#160 = LOCAL_TIME ( 15, 56, 25.00000000000000000, #19 ) ;
#161 = EDGE_LOOP ( 'NONE', ( #109, #165 ) ) ;
#162 = EDGE_LOOP ( 'NONE', ( #106, #66 ) ) ;
#163 = CARTESIAN_POINT ( 'NONE',  ( -50.79999999999999700, 0.0000000000000000000, 0.0000000000000000000 ) ) ;
#164 = ORGANIZATION ( 'UNSPECIFIED', 'UNSPECIFIED', '' ) ;
#165 = ORIENTED_EDGE ( 'NONE', *, *, #53, .T. ) ;
#166 = DIRECTION ( 'NONE',  ( 0.0000000000000000000, 0.0000000000000000000, 1.000000000000000000 ) ) ;
#167 = APPROVAL_PERSON_ORGANIZATION ( #113, #28, #81 ) ;
#168 = CARTESIAN_POINT ( 'NONE',  ( 50.79999999999999700, 6.221205739668553700E-015, 1.000000000000000000 ) ) ;
#169 = PERSON_AND_ORGANIZATION ( #154, #164 ) ;
#170 = ORIENTED_EDGE ( 'NONE', *, *, #68, .F. ) ;
#171 = CIRCLE ( 'NONE', #136, 50.79999999999999700 ) ;
#172 = AXIS2_PLACEMENT_3D ( 'NONE', #6, #30, #40 ) ;
#173 = ADVANCED_FACE ( 'NONE', ( #69 ), #39, .F. ) ;
#174 = COORDINATED_UNIVERSAL_TIME_OFFSET ( 5, 0, .BEHIND. ) ;
#175 = ADVANCED_FACE ( 'NONE', ( #23 ), #103, .T. ) ;
ENDSEC;
END-ISO-10303-21;
