ISO-10303-21;
HEADER;
FILE_DESCRIPTION (( 'STEP AP203' ),
    '1' );
FILE_NAME ('Web Model 45569_84477.step',
    '2019-01-07T15:35:41',
    ( '' ),
    ( '' ),
    'SwSTEP 2.0',
    'SolidWorks 2016',
    '' );
FILE_SCHEMA (( 'CONFIG_CONTROL_DESIGN' ));
ENDSEC;

DATA;
#1 = CALENDAR_DATE ( 2019, 7, 1 ) ;
#2 = PRODUCT_RELATED_PRODUCT_CATEGORY ( 'detail', '', ( #166 ) ) ;
#3 = CALENDAR_DATE ( 2019, 7, 1 ) ;
#4 = AXIS2_PLACEMENT_3D ( 'NONE', #9, #22, #116 ) ;
#5 = AXIS2_PLACEMENT_3D ( 'NONE', #173, #88, #11 ) ;
#6 = DIRECTION ( 'NONE',  ( -0.0000000000000000000, -0.0000000000000000000, -1.000000000000000000 ) ) ;
#7 = PERSON_AND_ORGANIZATION ( #44, #157 ) ;
#8 = EDGE_CURVE ( 'NONE', #111, #128, #69, .T. ) ;
#9 = CARTESIAN_POINT ( 'NONE',  ( 0.0000000000000000000, 0.0000000000000000000, 1.500000000000000000 ) ) ;
#10 = APPROVAL_DATE_TIME ( #28, #17 ) ;
#11 = DIRECTION ( 'NONE',  ( -1.000000000000000000, 0.0000000000000000000, 0.0000000000000000000 ) ) ;
#12 = VECTOR ( 'NONE', #6, 1000.000000000000000 ) ;
#13 = CC_DESIGN_PERSON_AND_ORGANIZATION_ASSIGNMENT ( #124, #106, ( #94 ) ) ;
#14 =( LENGTH_UNIT ( ) NAMED_UNIT ( * ) SI_UNIT ( .MILLI., .METRE. ) );
#15 = PERSON_AND_ORGANIZATION_ROLE ( 'classification_officer' ) ;
#16 = FACE_OUTER_BOUND ( 'NONE', #48, .T. ) ;
#17 = APPROVAL ( #95, 'UNSPECIFIED' ) ;
#18 = CIRCLE ( 'NONE', #63, 15.00000000000000000 ) ;
#19 = LOCAL_TIME ( 10, 35, 41.00000000000000000, #56 ) ;
#20 = FACE_OUTER_BOUND ( 'NONE', #140, .T. ) ;
#21 = CARTESIAN_POINT ( 'NONE',  ( -15.00000000000000000, 0.0000000000000000000, 1.500000000000000000 ) ) ;
#22 = DIRECTION ( 'NONE',  ( 0.0000000000000000000, 0.0000000000000000000, 1.000000000000000000 ) ) ;
#23 = DIRECTION ( 'NONE',  ( -1.000000000000000000, 0.0000000000000000000, 0.0000000000000000000 ) ) ;
#24 = DATE_AND_TIME ( #1, #96 ) ;
#25 = DIRECTION ( 'NONE',  ( 0.0000000000000000000, 0.0000000000000000000, 1.000000000000000000 ) ) ;
#26 = AXIS2_PLACEMENT_3D ( 'NONE', #107, #25, #36 ) ;
#27 = APPLICATION_PROTOCOL_DEFINITION ( 'international standard', 'config_control_design', 1994, #174 ) ;
#28 = DATE_AND_TIME ( #34, #139 ) ;
#29 = PERSON_AND_ORGANIZATION_ROLE ( 'design_owner' ) ;
#30 = ORIENTED_EDGE ( 'NONE', *, *, #31, .T. ) ;
#31 = EDGE_CURVE ( 'NONE', #128, #111, #169, .T. ) ;
#32 = COORDINATED_UNIVERSAL_TIME_OFFSET ( 5, 0, .BEHIND. ) ;
#33 = CC_DESIGN_PERSON_AND_ORGANIZATION_ASSIGNMENT ( #101, #55, ( #129 ) ) ;
#34 = CALENDAR_DATE ( 2019, 7, 1 ) ;
#35 = VERTEX_POINT ( 'NONE', #21 ) ;
#36 = DIRECTION ( 'NONE',  ( 1.000000000000000000, 0.0000000000000000000, -0.0000000000000000000 ) ) ;
#37 = APPROVAL_ROLE ( '' ) ;
#38 = APPROVAL_PERSON_ORGANIZATION ( #83, #151, #162 ) ;
#39 = CC_DESIGN_APPROVAL ( #122, ( #141 ) ) ;
#40 =( NAMED_UNIT ( * ) PLANE_ANGLE_UNIT ( ) SI_UNIT ( $, .RADIAN. ) );
#41 = DIRECTION ( 'NONE',  ( 0.0000000000000000000, 0.0000000000000000000, 1.000000000000000000 ) ) ;
#42 = DATE_AND_TIME ( #127, #168 ) ;
#43 = EDGE_CURVE ( 'NONE', #120, #128, #114, .T. ) ;
#44 = PERSON ( 'UNSPECIFIED', 'UNSPECIFIED', 'UNSPECIFIED', ('UNSPECIFIED'), ('UNSPECIFIED'), ('UNSPECIFIED') ) ;
#45 = FACE_OUTER_BOUND ( 'NONE', #76, .T. ) ;
#46 = ORIENTED_EDGE ( 'NONE', *, *, #57, .T. ) ;
#47 = CC_DESIGN_DATE_AND_TIME_ASSIGNMENT ( #42, #150, ( #141 ) ) ;
#48 = EDGE_LOOP ( 'NONE', ( #170, #71, #30, #108 ) ) ;
#49 = ORIENTED_EDGE ( 'NONE', *, *, #43, .F. ) ;
#50 = DIRECTION ( 'NONE',  ( -0.0000000000000000000, -0.0000000000000000000, -1.000000000000000000 ) ) ;
#51 = CARTESIAN_POINT ( 'NONE',  ( 0.0000000000000000000, 0.0000000000000000000, -1.500000000000000000 ) ) ;
#52 = AXIS2_PLACEMENT_3D ( 'NONE', #171, #50, #23 ) ;
#53 = DATE_AND_TIME ( #3, #58 ) ;
#54 = APPLICATION_CONTEXT ( 'configuration controlled 3d designs of mechanical parts and assemblies' ) ;
#55 = PERSON_AND_ORGANIZATION_ROLE ( 'design_supplier' ) ;
#56 = COORDINATED_UNIVERSAL_TIME_OFFSET ( 5, 0, .BEHIND. ) ;
#57 = EDGE_CURVE ( 'NONE', #120, #35, #100, .T. ) ;
#58 = LOCAL_TIME ( 10, 35, 41.00000000000000000, #32 ) ;
#59 = ADVANCED_FACE ( 'NONE', ( #16 ), #133, .T. ) ;
#60 = APPROVAL_PERSON_ORGANIZATION ( #158, #122, #68 ) ;
#61 = CYLINDRICAL_SURFACE ( 'NONE', #52, 15.00000000000000000 ) ;
#62 =( GEOMETRIC_REPRESENTATION_CONTEXT ( 3 ) GLOBAL_UNCERTAINTY_ASSIGNED_CONTEXT ( ( #154 ) ) GLOBAL_UNIT_ASSIGNED_CONTEXT ( ( #14, #40, #109 ) ) REPRESENTATION_CONTEXT ( 'NONE', 'WORKASPACE' ) );
#63 = AXIS2_PLACEMENT_3D ( 'NONE', #105, #41, #135 ) ;
#64 = PERSON_AND_ORGANIZATION ( #44, #157 ) ;
#65 = DIRECTION ( 'NONE',  ( -0.0000000000000000000, -0.0000000000000000000, -1.000000000000000000 ) ) ;
#66 = COORDINATED_UNIVERSAL_TIME_OFFSET ( 5, 0, .BEHIND. ) ;
#67 = PLANE ( 'NONE',  #4 ) ;
#68 = APPROVAL_ROLE ( '' ) ;
#69 = CIRCLE ( 'NONE', #145, 15.00000000000000000 ) ;
#70 = ORIENTED_EDGE ( 'NONE', *, *, #143, .F. ) ;
#71 = ORIENTED_EDGE ( 'NONE', *, *, #43, .T. ) ;
#72 = DIRECTION ( 'NONE',  ( 0.0000000000000000000, 0.0000000000000000000, 1.000000000000000000 ) ) ;
#73 = CARTESIAN_POINT ( 'NONE',  ( 0.0000000000000000000, 0.0000000000000000000, 1.500000000000000000 ) ) ;
#74 = CARTESIAN_POINT ( 'NONE',  ( 0.0000000000000000000, 0.0000000000000000000, -1.500000000000000000 ) ) ;
#75 = APPROVAL_DATE_TIME ( #24, #122 ) ;
#76 = EDGE_LOOP ( 'NONE', ( #175, #164 ) ) ;
#77 = CARTESIAN_POINT ( 'NONE',  ( 15.00000000000000000, 1.836970198721029600E-015, 1.500000000000000000 ) ) ;
#78 = DIRECTION ( 'NONE',  ( 1.000000000000000000, 0.0000000000000000000, 0.0000000000000000000 ) ) ;
#79 = PERSON_AND_ORGANIZATION ( #44, #157 ) ;
#80 = AXIS2_PLACEMENT_3D ( 'NONE', #163, #118, #78 ) ;
#81 = DESIGN_CONTEXT ( 'detailed design', #54, 'design' ) ;
#82 = CLOSED_SHELL ( 'NONE', ( #59, #153, #125, #123 ) ) ;
#83 = PERSON_AND_ORGANIZATION ( #44, #157 ) ;
#84 = CC_DESIGN_PERSON_AND_ORGANIZATION_ASSIGNMENT ( #64, #29, ( #166 ) ) ;
#85 = FACE_OUTER_BOUND ( 'NONE', #93, .T. ) ;
#86 = DIRECTION ( 'NONE',  ( 1.000000000000000000, 0.0000000000000000000, 0.0000000000000000000 ) ) ;
#87 = DIRECTION ( 'NONE',  ( 0.0000000000000000000, 0.0000000000000000000, 1.000000000000000000 ) ) ;
#88 = DIRECTION ( 'NONE',  ( -0.0000000000000000000, -0.0000000000000000000, -1.000000000000000000 ) ) ;
#89 = LINE ( 'NONE', #144, #97 ) ;
#90 = ADVANCED_BREP_SHAPE_REPRESENTATION ( 'Web Model 45569_84477', ( #138, #80 ), #62 ) ;
#91 = DIRECTION ( 'NONE',  ( 0.0000000000000000000, 0.0000000000000000000, 1.000000000000000000 ) ) ;
#92 = MECHANICAL_CONTEXT ( 'NONE', #174, 'mechanical' ) ;
#93 = EDGE_LOOP ( 'NONE', ( #49, #70, #159, #147 ) ) ;
#94 = PRODUCT_DEFINITION ( 'UNKNOWN', '', #129, #81 ) ;
#95 = APPROVAL_STATUS ( 'not_yet_approved' ) ;
#96 = LOCAL_TIME ( 10, 35, 41.00000000000000000, #66 ) ;
#97 = VECTOR ( 'NONE', #65, 1000.000000000000000 ) ;
#98 = CC_DESIGN_PERSON_AND_ORGANIZATION_ASSIGNMENT ( #131, #15, ( #141 ) ) ;
#99 = COORDINATED_UNIVERSAL_TIME_OFFSET ( 5, 0, .BEHIND. ) ;
#100 = CIRCLE ( 'NONE', #156, 15.00000000000000000 ) ;
#101 = PERSON_AND_ORGANIZATION ( #44, #157 ) ;
#102 = CC_DESIGN_PERSON_AND_ORGANIZATION_ASSIGNMENT ( #7, #148, ( #129 ) ) ;
#103 = PLANE ( 'NONE',  #26 ) ;
#104 = APPROVAL_PERSON_ORGANIZATION ( #79, #17, #37 ) ;
#105 = CARTESIAN_POINT ( 'NONE',  ( 0.0000000000000000000, 0.0000000000000000000, 1.500000000000000000 ) ) ;
#106 = PERSON_AND_ORGANIZATION_ROLE ( 'creator' ) ;
#107 = CARTESIAN_POINT ( 'NONE',  ( 0.0000000000000000000, 0.0000000000000000000, -1.500000000000000000 ) ) ;
#108 = ORIENTED_EDGE ( 'NONE', *, *, #110, .F. ) ;
#109 =( NAMED_UNIT ( * ) SI_UNIT ( $, .STERADIAN. ) SOLID_ANGLE_UNIT ( ) );
#110 = EDGE_CURVE ( 'NONE', #35, #111, #89, .T. ) ;
#111 = VERTEX_POINT ( 'NONE', #161 ) ;
#112 = COORDINATED_UNIVERSAL_TIME_OFFSET ( 5, 0, .BEHIND. ) ;
#113 = CC_DESIGN_APPROVAL ( #17, ( #129 ) ) ;
#114 = LINE ( 'NONE', #134, #12 ) ;
#115 = DATE_AND_TIME ( #152, #19 ) ;
#116 = DIRECTION ( 'NONE',  ( 1.000000000000000000, 0.0000000000000000000, -0.0000000000000000000 ) ) ;
#117 = SHAPE_DEFINITION_REPRESENTATION ( #155, #90 ) ;
#118 = DIRECTION ( 'NONE',  ( 0.0000000000000000000, 0.0000000000000000000, 1.000000000000000000 ) ) ;
#119 = APPLICATION_PROTOCOL_DEFINITION ( 'international standard', 'config_control_design', 1994, #54 ) ;
#120 = VERTEX_POINT ( 'NONE', #77 ) ;
#121 = CC_DESIGN_SECURITY_CLASSIFICATION ( #141, ( #129 ) ) ;
#122 = APPROVAL ( #136, 'UNSPECIFIED' ) ;
#123 = ADVANCED_FACE ( 'NONE', ( #45 ), #103, .F. ) ;
#124 = PERSON_AND_ORGANIZATION ( #44, #157 ) ;
#125 = ADVANCED_FACE ( 'NONE', ( #20 ), #67, .T. ) ;
#126 = AXIS2_PLACEMENT_3D ( 'NONE', #74, #87, #132 ) ;
#127 = CALENDAR_DATE ( 2019, 7, 1 ) ;
#128 = VERTEX_POINT ( 'NONE', #130 ) ;
#129 = PRODUCT_DEFINITION_FORMATION_WITH_SPECIFIED_SOURCE ( 'ANY', '', #166, .NOT_KNOWN. ) ;
#130 = CARTESIAN_POINT ( 'NONE',  ( 15.00000000000000000, 1.836970198721029600E-015, -1.500000000000000000 ) ) ;
#131 = PERSON_AND_ORGANIZATION ( #44, #157 ) ;
#132 = DIRECTION ( 'NONE',  ( 1.000000000000000000, 0.0000000000000000000, 0.0000000000000000000 ) ) ;
#133 = CYLINDRICAL_SURFACE ( 'NONE', #5, 15.00000000000000000 ) ;
#134 = CARTESIAN_POINT ( 'NONE',  ( 15.00000000000000000, 1.836970198721029600E-015, 1.500000000000000000 ) ) ;
#135 = DIRECTION ( 'NONE',  ( 1.000000000000000000, 0.0000000000000000000, 0.0000000000000000000 ) ) ;
#136 = APPROVAL_STATUS ( 'not_yet_approved' ) ;
#137 = SECURITY_CLASSIFICATION_LEVEL ( 'unclassified' ) ;
#138 = MANIFOLD_SOLID_BREP ( 'Boss-Extrude1', #82 ) ;
#139 = LOCAL_TIME ( 10, 35, 41.00000000000000000, #112 ) ;
#140 = EDGE_LOOP ( 'NONE', ( #142, #46 ) ) ;
#141 = SECURITY_CLASSIFICATION ( '', '', #137 ) ;
#142 = ORIENTED_EDGE ( 'NONE', *, *, #143, .T. ) ;
#143 = EDGE_CURVE ( 'NONE', #35, #120, #18, .T. ) ;
#144 = CARTESIAN_POINT ( 'NONE',  ( -15.00000000000000000, 0.0000000000000000000, 1.500000000000000000 ) ) ;
#145 = AXIS2_PLACEMENT_3D ( 'NONE', #51, #72, #86 ) ;
#146 = DIRECTION ( 'NONE',  ( 1.000000000000000000, 0.0000000000000000000, 0.0000000000000000000 ) ) ;
#147 = ORIENTED_EDGE ( 'NONE', *, *, #8, .T. ) ;
#148 = PERSON_AND_ORGANIZATION_ROLE ( 'creator' ) ;
#149 = APPROVAL_STATUS ( 'not_yet_approved' ) ;
#150 = DATE_TIME_ROLE ( 'classification_date' ) ;
#151 = APPROVAL ( #149, 'UNSPECIFIED' ) ;
#152 = CALENDAR_DATE ( 2019, 7, 1 ) ;
#153 = ADVANCED_FACE ( 'NONE', ( #85 ), #61, .T. ) ;
#154 = UNCERTAINTY_MEASURE_WITH_UNIT (LENGTH_MEASURE( 1.000000000000000100E-005 ), #14, 'distance_accuracy_value', 'NONE');
#155 = PRODUCT_DEFINITION_SHAPE ( 'NONE', 'NONE',  #94 ) ;
#156 = AXIS2_PLACEMENT_3D ( 'NONE', #73, #91, #146 ) ;
#157 = ORGANIZATION ( 'UNSPECIFIED', 'UNSPECIFIED', '' ) ;
#158 = PERSON_AND_ORGANIZATION ( #44, #157 ) ;
#159 = ORIENTED_EDGE ( 'NONE', *, *, #110, .T. ) ;
#160 = CC_DESIGN_DATE_AND_TIME_ASSIGNMENT ( #115, #165, ( #94 ) ) ;
#161 = CARTESIAN_POINT ( 'NONE',  ( -15.00000000000000000, 0.0000000000000000000, -1.500000000000000000 ) ) ;
#162 = APPROVAL_ROLE ( '' ) ;
#163 = CARTESIAN_POINT ( 'NONE',  ( 0.0000000000000000000, 0.0000000000000000000, 0.0000000000000000000 ) ) ;
#164 = ORIENTED_EDGE ( 'NONE', *, *, #31, .F. ) ;
#165 = DATE_TIME_ROLE ( 'creation_date' ) ;
#166 = PRODUCT ( 'Web Model 45569_84477', 'Web Model 45569_84477', '', ( #92 ) ) ;
#167 = APPROVAL_DATE_TIME ( #53, #151 ) ;
#168 = LOCAL_TIME ( 10, 35, 41.00000000000000000, #99 ) ;
#169 = CIRCLE ( 'NONE', #126, 15.00000000000000000 ) ;
#170 = ORIENTED_EDGE ( 'NONE', *, *, #57, .F. ) ;
#171 = CARTESIAN_POINT ( 'NONE',  ( 0.0000000000000000000, 0.0000000000000000000, 1.500000000000000000 ) ) ;
#172 = CC_DESIGN_APPROVAL ( #151, ( #94 ) ) ;
#173 = CARTESIAN_POINT ( 'NONE',  ( 0.0000000000000000000, 0.0000000000000000000, 1.500000000000000000 ) ) ;
#174 = APPLICATION_CONTEXT ( 'configuration controlled 3d designs of mechanical parts and assemblies' ) ;
#175 = ORIENTED_EDGE ( 'NONE', *, *, #8, .F. ) ;
ENDSEC;
END-ISO-10303-21;
