ISO-10303-21;
HEADER;
FILE_DESCRIPTION (( 'STEP AP203' ),
    '1' );
FILE_NAME ('ISP Wedged Parts_16806.step',
    '2020-12-15T21:29:45',
    ( '' ),
    ( '' ),
    'SwSTEP 2.0',
    'SolidWorks 2018',
    '' );
FILE_SCHEMA (( 'CONFIG_CONTROL_DESIGN' ));
ENDSEC;

DATA;
#1 = CLOSED_SHELL ( 'NONE', ( #95, #147, #40, #14 ) ) ;
#2 = LOCAL_TIME ( 16, 29, 45.00000000000000000, #114 ) ;
#3 = VECTOR ( 'NONE', #157, 1000.000000000000000 ) ;
#4 = CARTESIAN_POINT ( 'NONE',  ( 12.69999999999999929, -25.39999999999999858, 0.3324936628276262129 ) ) ;
#5 = CARTESIAN_POINT ( 'NONE',  ( -12.70000000000000462, -25.39999999999999858, 0.3324936628276262129 ) ) ;
#6 = LOCAL_TIME ( 16, 29, 45.00000000000000000, #11 ) ;
#7 = CARTESIAN_POINT ( 'NONE',  ( 12.69999999999999929, 1.555301434917138433E-15, 0.1108312209425420802 ) ) ;
#8 = VERTEX_POINT ( 'NONE', #117 ) ;
#9 = DATE_AND_TIME ( #69, #161 ) ;
#10 = PRODUCT_DEFINITION_SHAPE ( 'NONE', 'NONE',  #98 ) ;
#11 = COORDINATED_UNIVERSAL_TIME_OFFSET ( 5, 0, .BEHIND. ) ;
#12 = CC_DESIGN_APPROVAL ( #172, ( #17 ) ) ;
#13 =( BOUNDED_CURVE ( )  B_SPLINE_CURVE ( 3, ( #21, #5, #4, #7 ),
 .UNSPECIFIED., .F., .F. ) 
 B_SPLINE_CURVE_WITH_KNOTS ( ( 4, 4 ),
 ( 1.570796326794896558, 4.712388980384689674 ),
 .UNSPECIFIED. ) 
 CURVE ( )  GEOMETRIC_REPRESENTATION_ITEM ( )  RATIONAL_B_SPLINE_CURVE ( ( 1.000000000000000000, 0.3333333333333333703, 0.3333333333333333703, 1.000000000000000000 ) ) 
 REPRESENTATION_ITEM ( '' )  );
#14 = ADVANCED_FACE ( 'NONE', ( #19 ), #58, .F. ) ;
#15 = APPROVAL_DATE_TIME ( #56, #113 ) ;
#16 = AXIS2_PLACEMENT_3D ( 'NONE', #123, #132, #155 ) ;
#17 = SECURITY_CLASSIFICATION ( '', '', #85 ) ;
#18 = CARTESIAN_POINT ( 'NONE',  ( 12.69999999999999929, 1.555301434917138433E-15, 4.000000000000000000 ) ) ;
#19 = FACE_OUTER_BOUND ( 'NONE', #107, .T. ) ;
#20 = CARTESIAN_POINT ( 'NONE',  ( -12.69999999999999929, 0.0000000000000000000, 4.000000000000000000 ) ) ;
#21 = CARTESIAN_POINT ( 'NONE',  ( -12.69999999999999929, 0.0000000000000000000, 0.1108312209425420802 ) ) ;
#22 = PLANE ( 'NONE',  #61 ) ;
#23 = FACE_OUTER_BOUND ( 'NONE', #105, .T. ) ;
#24 = CC_DESIGN_PERSON_AND_ORGANIZATION_ASSIGNMENT ( #37, #84, ( #55 ) ) ;
#25 = MECHANICAL_CONTEXT ( 'NONE', #31, 'mechanical' ) ;
#26 = APPROVAL_ROLE ( '' ) ;
#27 = ORGANIZATION ( 'UNSPECIFIED', 'UNSPECIFIED', '' ) ;
#28 = APPROVAL_DATE_TIME ( #9, #163 ) ;
#29 = ORIENTED_EDGE ( 'NONE', *, *, #144, .T. ) ;
#30 = DIRECTION ( 'NONE',  ( 0.0000000000000000000, 0.0000000000000000000, 1.000000000000000000 ) ) ;
#31 = APPLICATION_CONTEXT ( 'configuration controlled 3d designs of mechanical parts and assemblies' ) ;
#32 = DIRECTION ( 'NONE',  ( -0.0000000000000000000, -0.0000000000000000000, -1.000000000000000000 ) ) ;
#33 = ORIENTED_EDGE ( 'NONE', *, *, #144, .F. ) ;
#34 = FACE_OUTER_BOUND ( 'NONE', #174, .T. ) ;
#35 = DIRECTION ( 'NONE',  ( -0.0000000000000000000, -0.0000000000000000000, -1.000000000000000000 ) ) ;
#36 = CARTESIAN_POINT ( 'NONE',  ( 0.0000000000000000000, 0.0000000000000000000, 4.000000000000000000 ) ) ;
#37 = PERSON_AND_ORGANIZATION ( #54, #27 ) ;
#38 = DATE_TIME_ROLE ( 'classification_date' ) ;
#39 = VECTOR ( 'NONE', #32, 1000.000000000000000 ) ;
#40 = ADVANCED_FACE ( 'NONE', ( #23 ), #22, .T. ) ;
#41 = UNCERTAINTY_MEASURE_WITH_UNIT (LENGTH_MEASURE( 1.000000000000000082E-05 ), #153, 'distance_accuracy_value', 'NONE');
#42 = ORIENTED_EDGE ( 'NONE', *, *, #152, .T. ) ;
#43 = APPROVAL_PERSON_ORGANIZATION ( #135, #113, #94 ) ;
#44 = CC_DESIGN_DATE_AND_TIME_ASSIGNMENT ( #167, #136, ( #98 ) ) ;
#45 = CC_DESIGN_PERSON_AND_ORGANIZATION_ASSIGNMENT ( #154, #173, ( #17 ) ) ;
#46 = ORIENTED_EDGE ( 'NONE', *, *, #120, .T. ) ;
#47 = COORDINATED_UNIVERSAL_TIME_OFFSET ( 5, 0, .BEHIND. ) ;
#48 = CARTESIAN_POINT ( 'NONE',  ( 0.0000000000000000000, 0.0000000000000000000, 4.000000000000000000 ) ) ;
#49 = DIRECTION ( 'NONE',  ( 1.000000000000000000, 0.0000000000000000000, 0.0000000000000000000 ) ) ;
#50 = PERSON_AND_ORGANIZATION ( #54, #27 ) ;
#51 = CARTESIAN_POINT ( 'NONE',  ( 0.0000000000000000000, 0.0000000000000000000, 4.000000000000000000 ) ) ;
#52 = ORIENTED_EDGE ( 'NONE', *, *, #66, .F. ) ;
#53 =( NAMED_UNIT ( * ) PLANE_ANGLE_UNIT ( ) SI_UNIT ( $, .RADIAN. ) );
#54 = PERSON ( 'UNSPECIFIED', 'UNSPECIFIED', 'UNSPECIFIED', ('UNSPECIFIED'), ('UNSPECIFIED'), ('UNSPECIFIED') ) ;
#55 = PRODUCT ( 'ISP Wedged Parts_16806', 'ISP Wedged Parts_16806', '', ( #25 ) ) ;
#56 = DATE_AND_TIME ( #131, #175 ) ;
#57 = PRODUCT_DEFINITION_FORMATION_WITH_SPECIFIED_SOURCE ( 'ANY', '', #55, .NOT_KNOWN. ) ;
#58 = PLANE ( 'NONE',  #16 ) ;
#59 = ORIENTED_EDGE ( 'NONE', *, *, #66, .T. ) ;
#60 = APPROVAL_STATUS ( 'not_yet_approved' ) ;
#61 = AXIS2_PLACEMENT_3D ( 'NONE', #36, #74, #164 ) ;
#62 = APPROVAL_STATUS ( 'not_yet_approved' ) ;
#63 = CC_DESIGN_DATE_AND_TIME_ASSIGNMENT ( #110, #38, ( #17 ) ) ;
#64 = EDGE_LOOP ( 'NONE', ( #33, #160, #59, #90 ) ) ;
#65 = DIRECTION ( 'NONE',  ( -0.0000000000000000000, -0.0000000000000000000, -1.000000000000000000 ) ) ;
#66 = EDGE_CURVE ( 'NONE', #133, #112, #128, .T. ) ;
#67 =( NAMED_UNIT ( * ) SI_UNIT ( $, .STERADIAN. ) SOLID_ANGLE_UNIT ( ) );
#68 = EDGE_CURVE ( 'NONE', #8, #133, #122, .T. ) ;
#69 = CALENDAR_DATE ( 2020, 15, 12 ) ;
#70 = PERSON_AND_ORGANIZATION ( #54, #27 ) ;
#71 = APPLICATION_PROTOCOL_DEFINITION ( 'international standard', 'config_control_design', 1994, #109 ) ;
#72 = FACE_OUTER_BOUND ( 'NONE', #64, .T. ) ;
#73 = AXIS2_PLACEMENT_3D ( 'NONE', #140, #118, #77 ) ;
#74 = DIRECTION ( 'NONE',  ( 0.0000000000000000000, 0.0000000000000000000, 1.000000000000000000 ) ) ;
#75 = DIRECTION ( 'NONE',  ( 0.0000000000000000000, 0.0000000000000000000, 1.000000000000000000 ) ) ;
#76 = PERSON_AND_ORGANIZATION ( #54, #27 ) ;
#77 = DIRECTION ( 'NONE',  ( 1.000000000000000000, 0.0000000000000000000, 0.0000000000000000000 ) ) ;
#78 = PRODUCT_RELATED_PRODUCT_CATEGORY ( 'detail', '', ( #55 ) ) ;
#79 = DIRECTION ( 'NONE',  ( -1.000000000000000000, 0.0000000000000000000, 0.0000000000000000000 ) ) ;
#80 = CARTESIAN_POINT ( 'NONE',  ( -12.69999999999999929, 0.0000000000000000000, 4.000000000000000000 ) ) ;
#81 = CC_DESIGN_SECURITY_CLASSIFICATION ( #17, ( #57 ) ) ;
#82 = CALENDAR_DATE ( 2020, 15, 12 ) ;
#83 = COORDINATED_UNIVERSAL_TIME_OFFSET ( 5, 0, .BEHIND. ) ;
#84 = PERSON_AND_ORGANIZATION_ROLE ( 'design_owner' ) ;
#85 = SECURITY_CLASSIFICATION_LEVEL ( 'unclassified' ) ;
#86 = AXIS2_PLACEMENT_3D ( 'NONE', #115, #65, #102 ) ;
#87 = LOCAL_TIME ( 16, 29, 45.00000000000000000, #159 ) ;
#88 = VERTEX_POINT ( 'NONE', #89 ) ;
#89 = CARTESIAN_POINT ( 'NONE',  ( 12.69999999999999929, 1.555301434917138433E-15, 0.1108312209425420802 ) ) ;
#90 = ORIENTED_EDGE ( 'NONE', *, *, #156, .T. ) ;
#91 = AXIS2_PLACEMENT_3D ( 'NONE', #48, #75, #49 ) ;
#92 = CARTESIAN_POINT ( 'NONE',  ( -12.70000000000000462, 25.39999999999999858, -0.1108312209425421080 ) ) ;
#93 = PERSON_AND_ORGANIZATION ( #54, #27 ) ;
#94 = APPROVAL_ROLE ( '' ) ;
#95 = ADVANCED_FACE ( 'NONE', ( #34 ), #103, .T. ) ;
#96 = CALENDAR_DATE ( 2020, 15, 12 ) ;
#97 = PERSON_AND_ORGANIZATION_ROLE ( 'creator' ) ;
#98 = PRODUCT_DEFINITION ( 'UNKNOWN', '', #57, #138 ) ;
#99 = CIRCLE ( 'NONE', #73, 12.69999999999999929 ) ;
#100 = APPROVAL_PERSON_ORGANIZATION ( #70, #163, #26 ) ;
#101 = CARTESIAN_POINT ( 'NONE',  ( 12.70000000000000995, 25.39999999999999858, -0.1108312209425420664 ) ) ;
#102 = DIRECTION ( 'NONE',  ( -1.000000000000000000, 0.0000000000000000000, 0.0000000000000000000 ) ) ;
#103 = CYLINDRICAL_SURFACE ( 'NONE', #130, 12.69999999999999929 ) ;
#104 = CC_DESIGN_PERSON_AND_ORGANIZATION_ASSIGNMENT ( #150, #97, ( #98 ) ) ;
#105 = EDGE_LOOP ( 'NONE', ( #46, #129 ) ) ;
#106 = ORIENTED_EDGE ( 'NONE', *, *, #68, .F. ) ;
#107 = EDGE_LOOP ( 'NONE', ( #148, #170 ) ) ;
#108 = CC_DESIGN_APPROVAL ( #113, ( #57 ) ) ;
#109 = APPLICATION_CONTEXT ( 'configuration controlled 3d designs of mechanical parts and assemblies' ) ;
#110 = DATE_AND_TIME ( #146, #6 ) ;
#111 = MANIFOLD_SOLID_BREP ( 'Cut-Extrude1', #1 ) ;
#112 = VERTEX_POINT ( 'NONE', #141 ) ;
#113 = APPROVAL ( #162, 'UNSPECIFIED' ) ;
#114 = COORDINATED_UNIVERSAL_TIME_OFFSET ( 5, 0, .BEHIND. ) ;
#115 = CARTESIAN_POINT ( 'NONE',  ( 0.0000000000000000000, 0.0000000000000000000, 4.000000000000000000 ) ) ;
#116 = ADVANCED_BREP_SHAPE_REPRESENTATION ( 'ISP Wedged Parts_16806', ( #111, #134 ), #126 ) ;
#117 = CARTESIAN_POINT ( 'NONE',  ( 12.69999999999999929, 1.555301434917138433E-15, 4.000000000000000000 ) ) ;
#118 = DIRECTION ( 'NONE',  ( 0.0000000000000000000, 0.0000000000000000000, 1.000000000000000000 ) ) ;
#119 = CC_DESIGN_PERSON_AND_ORGANIZATION_ASSIGNMENT ( #50, #125, ( #57 ) ) ;
#120 = EDGE_CURVE ( 'NONE', #133, #8, #99, .T. ) ;
#121 = APPLICATION_PROTOCOL_DEFINITION ( 'international standard', 'config_control_design', 1994, #31 ) ;
#122 = CIRCLE ( 'NONE', #91, 12.69999999999999929 ) ;
#123 = CARTESIAN_POINT ( 'NONE',  ( -12.69999999999999929, -12.69999999999999929, 0.2216624418850841882 ) ) ;
#124 = DATE_AND_TIME ( #82, #2 ) ;
#125 = PERSON_AND_ORGANIZATION_ROLE ( 'creator' ) ;
#126 =( GEOMETRIC_REPRESENTATION_CONTEXT ( 3 ) GLOBAL_UNCERTAINTY_ASSIGNED_CONTEXT ( ( #41 ) ) GLOBAL_UNIT_ASSIGNED_CONTEXT ( ( #153, #53, #67 ) ) REPRESENTATION_CONTEXT ( 'NONE', 'WORKASPACE' ) );
#127 = APPROVAL_DATE_TIME ( #124, #172 ) ;
#128 = LINE ( 'NONE', #20, #3 ) ;
#129 = ORIENTED_EDGE ( 'NONE', *, *, #68, .T. ) ;
#130 = AXIS2_PLACEMENT_3D ( 'NONE', #51, #35, #79 ) ;
#131 = CALENDAR_DATE ( 2020, 15, 12 ) ;
#132 = DIRECTION ( 'NONE',  ( 0.0000000000000000000, 0.008726535498366494448, 0.9999619230641714207 ) ) ;
#133 = VERTEX_POINT ( 'NONE', #80 ) ;
#134 = AXIS2_PLACEMENT_3D ( 'NONE', #145, #30, #158 ) ;
#135 = PERSON_AND_ORGANIZATION ( #54, #27 ) ;
#136 = DATE_TIME_ROLE ( 'creation_date' ) ;
#137 = PERSON_AND_ORGANIZATION_ROLE ( 'design_supplier' ) ;
#138 = DESIGN_CONTEXT ( 'detailed design', #109, 'design' ) ;
#139 = CC_DESIGN_PERSON_AND_ORGANIZATION_ASSIGNMENT ( #93, #137, ( #57 ) ) ;
#140 = CARTESIAN_POINT ( 'NONE',  ( 0.0000000000000000000, 0.0000000000000000000, 4.000000000000000000 ) ) ;
#141 = CARTESIAN_POINT ( 'NONE',  ( -12.69999999999999929, 0.0000000000000000000, 0.1108312209425420802 ) ) ;
#142 = APPROVAL_PERSON_ORGANIZATION ( #76, #172, #149 ) ;
#143 = CARTESIAN_POINT ( 'NONE',  ( 12.69999999999999929, 1.555301434917138433E-15, 0.1108312209425420802 ) ) ;
#144 = EDGE_CURVE ( 'NONE', #8, #88, #151, .T. ) ;
#145 = CARTESIAN_POINT ( 'NONE',  ( 0.0000000000000000000, 0.0000000000000000000, 0.0000000000000000000 ) ) ;
#146 = CALENDAR_DATE ( 2020, 15, 12 ) ;
#147 = ADVANCED_FACE ( 'NONE', ( #72 ), #171, .T. ) ;
#148 = ORIENTED_EDGE ( 'NONE', *, *, #156, .F. ) ;
#149 = APPROVAL_ROLE ( '' ) ;
#150 = PERSON_AND_ORGANIZATION ( #54, #27 ) ;
#151 = LINE ( 'NONE', #18, #39 ) ;
#152 = EDGE_CURVE ( 'NONE', #88, #112, #165, .T. ) ;
#153 =( LENGTH_UNIT ( ) NAMED_UNIT ( * ) SI_UNIT ( .MILLI., .METRE. ) );
#154 = PERSON_AND_ORGANIZATION ( #54, #27 ) ;
#155 = DIRECTION ( 'NONE',  ( 0.0000000000000000000, -0.9999619230641713097, 0.008726535498366492713 ) ) ;
#156 = EDGE_CURVE ( 'NONE', #112, #88, #13, .T. ) ;
#157 = DIRECTION ( 'NONE',  ( -0.0000000000000000000, -0.0000000000000000000, -1.000000000000000000 ) ) ;
#158 = DIRECTION ( 'NONE',  ( 1.000000000000000000, 0.0000000000000000000, 0.0000000000000000000 ) ) ;
#159 = COORDINATED_UNIVERSAL_TIME_OFFSET ( 5, 0, .BEHIND. ) ;
#160 = ORIENTED_EDGE ( 'NONE', *, *, #120, .F. ) ;
#161 = LOCAL_TIME ( 16, 29, 45.00000000000000000, #47 ) ;
#162 = APPROVAL_STATUS ( 'not_yet_approved' ) ;
#163 = APPROVAL ( #60, 'UNSPECIFIED' ) ;
#164 = DIRECTION ( 'NONE',  ( 1.000000000000000000, 0.0000000000000000000, -0.0000000000000000000 ) ) ;
#165 =( BOUNDED_CURVE ( )  B_SPLINE_CURVE ( 3, ( #143, #101, #92, #166 ),
 .UNSPECIFIED., .F., .F. ) 
 B_SPLINE_CURVE_WITH_KNOTS ( ( 4, 4 ),
 ( 4.712388980384689674, 7.853981633974482790 ),
 .UNSPECIFIED. ) 
 CURVE ( )  GEOMETRIC_REPRESENTATION_ITEM ( )  RATIONAL_B_SPLINE_CURVE ( ( 1.000000000000000000, 0.3333333333333333703, 0.3333333333333333703, 1.000000000000000000 ) ) 
 REPRESENTATION_ITEM ( '' )  );
#166 = CARTESIAN_POINT ( 'NONE',  ( -12.69999999999999929, 0.0000000000000000000, 0.1108312209425420802 ) ) ;
#167 = DATE_AND_TIME ( #96, #87 ) ;
#168 = SHAPE_DEFINITION_REPRESENTATION ( #10, #116 ) ;
#169 = CC_DESIGN_APPROVAL ( #163, ( #98 ) ) ;
#170 = ORIENTED_EDGE ( 'NONE', *, *, #152, .F. ) ;
#171 = CYLINDRICAL_SURFACE ( 'NONE', #86, 12.69999999999999929 ) ;
#172 = APPROVAL ( #62, 'UNSPECIFIED' ) ;
#173 = PERSON_AND_ORGANIZATION_ROLE ( 'classification_officer' ) ;
#174 = EDGE_LOOP ( 'NONE', ( #106, #29, #42, #52 ) ) ;
#175 = LOCAL_TIME ( 16, 29, 45.00000000000000000, #83 ) ;
ENDSEC;
END-ISO-10303-21;
