ISO-10303-21;
HEADER;
FILE_DESCRIPTION (( 'STEP AP203' ),
    '1' );
FILE_NAME ('Web Model 68417.STEP',
    '2017-01-31T20:00:36',
    ( '' ),
    ( '' ),
    'SwSTEP 2.0',
    'SolidWorks 2016',
    '' );
FILE_SCHEMA (( 'CONFIG_CONTROL_DESIGN' ));
ENDSEC;

DATA;
#1 = APPROVAL ( #146, 'UNSPECIFIED' ) ;
#2 = VERTEX_POINT ( 'NONE', #76 ) ;
#3 = EDGE_LOOP ( 'NONE', ( #173, #50 ) ) ;
#4 = CC_DESIGN_PERSON_AND_ORGANIZATION_ASSIGNMENT ( #95, #160, ( #41 ) ) ;
#5 = SHAPE_DEFINITION_REPRESENTATION ( #65, #82 ) ;
#6 = CYLINDRICAL_SURFACE ( 'NONE', #157, 6.249999999999998200 ) ;
#7 = DIRECTION ( 'NONE',  ( -1.000000000000000000, 0.0000000000000000000, 0.0000000000000000000 ) ) ;
#8 = AXIS2_PLACEMENT_3D ( 'NONE', #122, #54, #100 ) ;
#9 = DATE_AND_TIME ( #73, #91 ) ;
#10 = DIRECTION ( 'NONE',  ( 1.000000000000000000, 0.0000000000000000000, 0.0000000000000000000 ) ) ;
#11 =( NAMED_UNIT ( * ) PLANE_ANGLE_UNIT ( ) SI_UNIT ( $, .RADIAN. ) );
#12 = DIRECTION ( 'NONE',  ( 0.0000000000000000000, 0.0000000000000000000, 1.000000000000000000 ) ) ;
#13 = ORIENTED_EDGE ( 'NONE', *, *, #46, .T. ) ;
#14 = CC_DESIGN_DATE_AND_TIME_ASSIGNMENT ( #138, #143, ( #136 ) ) ;
#15 = ADVANCED_FACE ( 'NONE', ( #123 ), #88, .F. ) ;
#16 = APPROVAL_STATUS ( 'not_yet_approved' ) ;
#17 = AXIS2_PLACEMENT_3D ( 'NONE', #93, #112, #7 ) ;
#18 = CALENDAR_DATE ( 2017, 31, 1 ) ;
#19 = CALENDAR_DATE ( 2017, 31, 1 ) ;
#20 = ORIENTED_EDGE ( 'NONE', *, *, #57, .T. ) ;
#21 = PRODUCT_RELATED_PRODUCT_CATEGORY ( 'detail', '', ( #170 ) ) ;
#22 = CIRCLE ( 'NONE', #28, 6.249999999999998200 ) ;
#23 = AXIS2_PLACEMENT_3D ( 'NONE', #89, #142, #107 ) ;
#24 = APPROVAL_DATE_TIME ( #101, #116 ) ;
#25 = FACE_OUTER_BOUND ( 'NONE', #59, .T. ) ;
#26 = FACE_OUTER_BOUND ( 'NONE', #33, .T. ) ;
#27 = CC_DESIGN_PERSON_AND_ORGANIZATION_ASSIGNMENT ( #104, #51, ( #58 ) ) ;
#28 = AXIS2_PLACEMENT_3D ( 'NONE', #75, #127, #29 ) ;
#29 = DIRECTION ( 'NONE',  ( 1.000000000000000000, 0.0000000000000000000, 0.0000000000000000000 ) ) ;
#30 = APPLICATION_PROTOCOL_DEFINITION ( 'international standard', 'config_control_design', 1994, #32 ) ;
#31 = DIRECTION ( 'NONE',  ( 0.0000000000000000000, 0.0000000000000000000, 1.000000000000000000 ) ) ;
#32 = APPLICATION_CONTEXT ( 'configuration controlled 3d designs of mechanical parts and assemblies' ) ;
#33 = EDGE_LOOP ( 'NONE', ( #139, #103, #13, #20 ) ) ;
#34 = CARTESIAN_POINT ( 'NONE',  ( 0.0000000000000000000, 0.0000000000000000000, 3.000000000000000000 ) ) ;
#35 = APPROVAL_PERSON_ORGANIZATION ( #111, #116, #149 ) ;
#36 = ADVANCED_FACE ( 'NONE', ( #26 ), #169, .T. ) ;
#37 = VERTEX_POINT ( 'NONE', #167 ) ;
#38 = UNCERTAINTY_MEASURE_WITH_UNIT (LENGTH_MEASURE( 1.000000000000000100E-005 ), #79, 'distance_accuracy_value', 'NONE');
#39 = PERSON_AND_ORGANIZATION ( #96, #161 ) ;
#40 = CC_DESIGN_PERSON_AND_ORGANIZATION_ASSIGNMENT ( #120, #132, ( #58 ) ) ;
#41 = SECURITY_CLASSIFICATION ( '', '', #80 ) ;
#42 = APPROVAL_DATE_TIME ( #47, #144 ) ;
#43 = CIRCLE ( 'NONE', #115, 6.249999999999998200 ) ;
#44 = EDGE_LOOP ( 'NONE', ( #72, #141, #86, #165 ) ) ;
#45 = DIRECTION ( 'NONE',  ( 0.0000000000000000000, 0.0000000000000000000, 1.000000000000000000 ) ) ;
#46 = EDGE_CURVE ( 'NONE', #64, #148, #105, .T. ) ;
#47 = DATE_AND_TIME ( #19, #158 ) ;
#48 = PLANE ( 'NONE',  #8 ) ;
#49 = PERSON_AND_ORGANIZATION ( #96, #161 ) ;
#50 = ORIENTED_EDGE ( 'NONE', *, *, #174, .F. ) ;
#51 = PERSON_AND_ORGANIZATION_ROLE ( 'creator' ) ;
#52 = CARTESIAN_POINT ( 'NONE',  ( 0.0000000000000000000, 0.0000000000000000000, 0.0000000000000000000 ) ) ;
#53 = EDGE_CURVE ( 'NONE', #2, #64, #22, .T. ) ;
#54 = DIRECTION ( 'NONE',  ( 0.0000000000000000000, 0.0000000000000000000, 1.000000000000000000 ) ) ;
#55 = AXIS2_PLACEMENT_3D ( 'NONE', #94, #12, #113 ) ;
#56 = ADVANCED_FACE ( 'NONE', ( #102 ), #6, .T. ) ;
#57 = EDGE_CURVE ( 'NONE', #148, #37, #117, .T. ) ;
#58 = PRODUCT_DEFINITION_FORMATION_WITH_SPECIFIED_SOURCE ( 'ANY', '', #170, .NOT_KNOWN. ) ;
#59 = EDGE_LOOP ( 'NONE', ( #87, #106 ) ) ;
#60 = COORDINATED_UNIVERSAL_TIME_OFFSET ( 5, 0, .BEHIND. ) ;
#61 = VECTOR ( 'NONE', #98, 1000.000000000000000 ) ;
#62 = CARTESIAN_POINT ( 'NONE',  ( 0.0000000000000000000, 0.0000000000000000000, 3.000000000000000000 ) ) ;
#63 = CARTESIAN_POINT ( 'NONE',  ( 0.0000000000000000000, 0.0000000000000000000, 0.0000000000000000000 ) ) ;
#64 = VERTEX_POINT ( 'NONE', #154 ) ;
#65 = PRODUCT_DEFINITION_SHAPE ( 'NONE', 'NONE',  #136 ) ;
#66 = DIRECTION ( 'NONE',  ( -1.000000000000000000, 0.0000000000000000000, 0.0000000000000000000 ) ) ;
#67 = LOCAL_TIME ( 15, 0, 36.00000000000000000, #133 ) ;
#68 = APPLICATION_CONTEXT ( 'configuration controlled 3d designs of mechanical parts and assemblies' ) ;
#69 = APPROVAL_STATUS ( 'not_yet_approved' ) ;
#70 = AXIS2_PLACEMENT_3D ( 'NONE', #52, #155, #10 ) ;
#71 = COORDINATED_UNIVERSAL_TIME_OFFSET ( 5, 0, .BEHIND. ) ;
#72 = ORIENTED_EDGE ( 'NONE', *, *, #53, .F. ) ;
#73 = CALENDAR_DATE ( 2017, 31, 1 ) ;
#74 = COORDINATED_UNIVERSAL_TIME_OFFSET ( 5, 0, .BEHIND. ) ;
#75 = CARTESIAN_POINT ( 'NONE',  ( 0.0000000000000000000, 0.0000000000000000000, 3.000000000000000000 ) ) ;
#76 = CARTESIAN_POINT ( 'NONE',  ( 6.249999999999998200, 7.654042494670955600E-016, 3.000000000000000000 ) ) ;
#77 = APPLICATION_PROTOCOL_DEFINITION ( 'international standard', 'config_control_design', 1994, #68 ) ;
#78 = AXIS2_PLACEMENT_3D ( 'NONE', #63, #45, #126 ) ;
#79 =( LENGTH_UNIT ( ) NAMED_UNIT ( * ) SI_UNIT ( .MILLI., .METRE. ) );
#80 = SECURITY_CLASSIFICATION_LEVEL ( 'unclassified' ) ;
#81 = CC_DESIGN_APPROVAL ( #1, ( #136 ) ) ;
#82 = ADVANCED_BREP_SHAPE_REPRESENTATION ( 'Web Model 68417', ( #131, #70 ), #84 ) ;
#83 = VECTOR ( 'NONE', #152, 1000.000000000000000 ) ;
#84 =( GEOMETRIC_REPRESENTATION_CONTEXT ( 3 ) GLOBAL_UNCERTAINTY_ASSIGNED_CONTEXT ( ( #38 ) ) GLOBAL_UNIT_ASSIGNED_CONTEXT ( ( #79, #11, #171 ) ) REPRESENTATION_CONTEXT ( 'NONE', 'WORKASPACE' ) );
#85 = CC_DESIGN_APPROVAL ( #116, ( #41 ) ) ;
#86 = ORIENTED_EDGE ( 'NONE', *, *, #174, .T. ) ;
#87 = ORIENTED_EDGE ( 'NONE', *, *, #125, .T. ) ;
#88 = PLANE ( 'NONE',  #78 ) ;
#89 = CARTESIAN_POINT ( 'NONE',  ( 0.0000000000000000000, 0.0000000000000000000, 0.0000000000000000000 ) ) ;
#90 = DATE_TIME_ROLE ( 'classification_date' ) ;
#91 = LOCAL_TIME ( 15, 0, 36.00000000000000000, #60 ) ;
#92 = APPROVAL_PERSON_ORGANIZATION ( #121, #1, #159 ) ;
#93 = CARTESIAN_POINT ( 'NONE',  ( 0.0000000000000000000, 0.0000000000000000000, 3.000000000000000000 ) ) ;
#94 = CARTESIAN_POINT ( 'NONE',  ( 0.0000000000000000000, 0.0000000000000000000, 0.0000000000000000000 ) ) ;
#95 = PERSON_AND_ORGANIZATION ( #96, #161 ) ;
#96 = PERSON ( 'UNSPECIFIED', 'UNSPECIFIED', 'UNSPECIFIED', ('UNSPECIFIED'), ('UNSPECIFIED'), ('UNSPECIFIED') ) ;
#97 = COORDINATED_UNIVERSAL_TIME_OFFSET ( 5, 0, .BEHIND. ) ;
#98 = DIRECTION ( 'NONE',  ( -0.0000000000000000000, -0.0000000000000000000, -1.000000000000000000 ) ) ;
#99 = APPROVAL_PERSON_ORGANIZATION ( #39, #144, #156 ) ;
#100 = DIRECTION ( 'NONE',  ( 1.000000000000000000, 0.0000000000000000000, -0.0000000000000000000 ) ) ;
#101 = DATE_AND_TIME ( #164, #162 ) ;
#102 = FACE_OUTER_BOUND ( 'NONE', #44, .T. ) ;
#103 = ORIENTED_EDGE ( 'NONE', *, *, #125, .F. ) ;
#104 = PERSON_AND_ORGANIZATION ( #96, #161 ) ;
#105 = LINE ( 'NONE', #124, #83 ) ;
#106 = ORIENTED_EDGE ( 'NONE', *, *, #53, .T. ) ;
#107 = DIRECTION ( 'NONE',  ( 1.000000000000000000, 0.0000000000000000000, 0.0000000000000000000 ) ) ;
#108 = CC_DESIGN_APPROVAL ( #144, ( #58 ) ) ;
#109 = APPROVAL_DATE_TIME ( #151, #1 ) ;
#110 = CLOSED_SHELL ( 'NONE', ( #56, #36, #137, #15 ) ) ;
#111 = PERSON_AND_ORGANIZATION ( #96, #161 ) ;
#112 = DIRECTION ( 'NONE',  ( -0.0000000000000000000, -0.0000000000000000000, -1.000000000000000000 ) ) ;
#113 = DIRECTION ( 'NONE',  ( 1.000000000000000000, 0.0000000000000000000, 0.0000000000000000000 ) ) ;
#114 = CARTESIAN_POINT ( 'NONE',  ( 6.249999999999998200, 7.654042494670955600E-016, 3.000000000000000000 ) ) ;
#115 = AXIS2_PLACEMENT_3D ( 'NONE', #34, #31, #129 ) ;
#116 = APPROVAL ( #16, 'UNSPECIFIED' ) ;
#117 = CIRCLE ( 'NONE', #55, 6.249999999999998200 ) ;
#118 = PERSON_AND_ORGANIZATION ( #96, #161 ) ;
#119 = CC_DESIGN_PERSON_AND_ORGANIZATION_ASSIGNMENT ( #118, #134, ( #170 ) ) ;
#120 = PERSON_AND_ORGANIZATION ( #96, #161 ) ;
#121 = PERSON_AND_ORGANIZATION ( #96, #161 ) ;
#122 = CARTESIAN_POINT ( 'NONE',  ( 0.0000000000000000000, 0.0000000000000000000, 3.000000000000000000 ) ) ;
#123 = FACE_OUTER_BOUND ( 'NONE', #3, .T. ) ;
#124 = CARTESIAN_POINT ( 'NONE',  ( -6.249999999999998200, 0.0000000000000000000, 3.000000000000000000 ) ) ;
#125 = EDGE_CURVE ( 'NONE', #64, #2, #43, .T. ) ;
#126 = DIRECTION ( 'NONE',  ( 1.000000000000000000, 0.0000000000000000000, -0.0000000000000000000 ) ) ;
#127 = DIRECTION ( 'NONE',  ( 0.0000000000000000000, 0.0000000000000000000, 1.000000000000000000 ) ) ;
#128 = DIRECTION ( 'NONE',  ( -0.0000000000000000000, -0.0000000000000000000, -1.000000000000000000 ) ) ;
#129 = DIRECTION ( 'NONE',  ( 1.000000000000000000, 0.0000000000000000000, 0.0000000000000000000 ) ) ;
#130 = MECHANICAL_CONTEXT ( 'NONE', #32, 'mechanical' ) ;
#131 = MANIFOLD_SOLID_BREP ( 'Extrude1', #110 ) ;
#132 = PERSON_AND_ORGANIZATION_ROLE ( 'design_supplier' ) ;
#133 = COORDINATED_UNIVERSAL_TIME_OFFSET ( 5, 0, .BEHIND. ) ;
#134 = PERSON_AND_ORGANIZATION_ROLE ( 'design_owner' ) ;
#135 = PERSON_AND_ORGANIZATION_ROLE ( 'creator' ) ;
#136 = PRODUCT_DEFINITION ( 'UNKNOWN', '', #58, #150 ) ;
#137 = ADVANCED_FACE ( 'NONE', ( #25 ), #48, .T. ) ;
#138 = DATE_AND_TIME ( #172, #163 ) ;
#139 = ORIENTED_EDGE ( 'NONE', *, *, #166, .F. ) ;
#140 = CIRCLE ( 'NONE', #23, 6.249999999999998200 ) ;
#141 = ORIENTED_EDGE ( 'NONE', *, *, #166, .T. ) ;
#142 = DIRECTION ( 'NONE',  ( 0.0000000000000000000, 0.0000000000000000000, 1.000000000000000000 ) ) ;
#143 = DATE_TIME_ROLE ( 'creation_date' ) ;
#144 = APPROVAL ( #69, 'UNSPECIFIED' ) ;
#145 = CARTESIAN_POINT ( 'NONE',  ( -6.249999999999998200, 0.0000000000000000000, 0.0000000000000000000 ) ) ;
#146 = APPROVAL_STATUS ( 'not_yet_approved' ) ;
#147 = LINE ( 'NONE', #114, #61 ) ;
#148 = VERTEX_POINT ( 'NONE', #145 ) ;
#149 = APPROVAL_ROLE ( '' ) ;
#150 = DESIGN_CONTEXT ( 'detailed design', #68, 'design' ) ;
#151 = DATE_AND_TIME ( #18, #67 ) ;
#152 = DIRECTION ( 'NONE',  ( -0.0000000000000000000, -0.0000000000000000000, -1.000000000000000000 ) ) ;
#153 = CC_DESIGN_SECURITY_CLASSIFICATION ( #41, ( #58 ) ) ;
#154 = CARTESIAN_POINT ( 'NONE',  ( -6.249999999999998200, 0.0000000000000000000, 3.000000000000000000 ) ) ;
#155 = DIRECTION ( 'NONE',  ( 0.0000000000000000000, 0.0000000000000000000, 1.000000000000000000 ) ) ;
#156 = APPROVAL_ROLE ( '' ) ;
#157 = AXIS2_PLACEMENT_3D ( 'NONE', #62, #128, #66 ) ;
#158 = LOCAL_TIME ( 15, 0, 36.00000000000000000, #71 ) ;
#159 = APPROVAL_ROLE ( '' ) ;
#160 = PERSON_AND_ORGANIZATION_ROLE ( 'classification_officer' ) ;
#161 = ORGANIZATION ( 'UNSPECIFIED', 'UNSPECIFIED', '' ) ;
#162 = LOCAL_TIME ( 15, 0, 36.00000000000000000, #97 ) ;
#163 = LOCAL_TIME ( 15, 0, 36.00000000000000000, #74 ) ;
#164 = CALENDAR_DATE ( 2017, 31, 1 ) ;
#165 = ORIENTED_EDGE ( 'NONE', *, *, #46, .F. ) ;
#166 = EDGE_CURVE ( 'NONE', #2, #37, #147, .T. ) ;
#167 = CARTESIAN_POINT ( 'NONE',  ( 6.249999999999998200, 7.654042494670955600E-016, 0.0000000000000000000 ) ) ;
#168 = CC_DESIGN_PERSON_AND_ORGANIZATION_ASSIGNMENT ( #49, #135, ( #136 ) ) ;
#169 = CYLINDRICAL_SURFACE ( 'NONE', #17, 6.249999999999998200 ) ;
#170 = PRODUCT ( 'Web Model 68417', 'Web Model 68417', '', ( #130 ) ) ;
#171 =( NAMED_UNIT ( * ) SI_UNIT ( $, .STERADIAN. ) SOLID_ANGLE_UNIT ( ) );
#172 = CALENDAR_DATE ( 2017, 31, 1 ) ;
#173 = ORIENTED_EDGE ( 'NONE', *, *, #57, .F. ) ;
#174 = EDGE_CURVE ( 'NONE', #37, #148, #140, .T. ) ;
#175 = CC_DESIGN_DATE_AND_TIME_ASSIGNMENT ( #9, #90, ( #41 ) ) ;
ENDSEC;
END-ISO-10303-21;
