ISO-10303-21;
HEADER;
FILE_DESCRIPTION (( 'STEP AP203' ),
    '1' );
FILE_NAME ('Web Model 12253_12253.step',
    '2019-01-15T22:00:30',
    ( '' ),
    ( '' ),
    'SwSTEP 2.0',
    'SolidWorks 2016',
    '' );
FILE_SCHEMA (( 'CONFIG_CONTROL_DESIGN' ));
ENDSEC;

DATA;
#1 = DIRECTION ( 'NONE',  ( -0.0000000000000000000, -0.0000000000000000000, -1.000000000000000000 ) ) ;
#2 = DIRECTION ( 'NONE',  ( 0.0000000000000000000, 0.0000000000000000000, 1.000000000000000000 ) ) ;
#3 = DIRECTION ( 'NONE',  ( 0.0000000000000000000, 0.0000000000000000000, 1.000000000000000000 ) ) ;
#4 = AXIS2_PLACEMENT_3D ( 'NONE', #66, #43, #84 ) ;
#5 = DIRECTION ( 'NONE',  ( 1.000000000000000000, 0.0000000000000000000, 0.0000000000000000000 ) ) ;
#6 = CC_DESIGN_SECURITY_CLASSIFICATION ( #133, ( #157 ) ) ;
#7 = CALENDAR_DATE ( 2019, 15, 1 ) ;
#8 = PERSON_AND_ORGANIZATION_ROLE ( 'creator' ) ;
#9 = APPROVAL_ROLE ( '' ) ;
#10 = LOCAL_TIME ( 17, 0, 30.00000000000000000, #154 ) ;
#11 = ADVANCED_BREP_SHAPE_REPRESENTATION ( 'Web Model 12253_12253', ( #140, #59 ), #119 ) ;
#12 = APPROVAL ( #72, 'UNSPECIFIED' ) ;
#13 = AXIS2_PLACEMENT_3D ( 'NONE', #109, #1, #51 ) ;
#14 = ORIENTED_EDGE ( 'NONE', *, *, #138, .F. ) ;
#15 = ADVANCED_FACE ( 'NONE', ( #120 ), #160, .T. ) ;
#16 = COORDINATED_UNIVERSAL_TIME_OFFSET ( 5, 0, .BEHIND. ) ;
#17 = VERTEX_POINT ( 'NONE', #69 ) ;
#18 = APPROVAL_DATE_TIME ( #68, #12 ) ;
#19 = EDGE_LOOP ( 'NONE', ( #30, #39, #159, #91 ) ) ;
#20 = CC_DESIGN_PERSON_AND_ORGANIZATION_ASSIGNMENT ( #116, #112, ( #157 ) ) ;
#21 =( NAMED_UNIT ( * ) SI_UNIT ( $, .STERADIAN. ) SOLID_ANGLE_UNIT ( ) );
#22 = APPROVAL_STATUS ( 'not_yet_approved' ) ;
#23 = ORIENTED_EDGE ( 'NONE', *, *, #45, .F. ) ;
#24 = SHAPE_DEFINITION_REPRESENTATION ( #106, #11 ) ;
#25 = ADVANCED_FACE ( 'NONE', ( #82 ), #124, .T. ) ;
#26 = APPROVAL ( #98, 'UNSPECIFIED' ) ;
#27 = EDGE_LOOP ( 'NONE', ( #132, #76, #83, #14 ) ) ;
#28 = LOCAL_TIME ( 17, 0, 30.00000000000000000, #62 ) ;
#29 = FACE_OUTER_BOUND ( 'NONE', #80, .T. ) ;
#30 = ORIENTED_EDGE ( 'NONE', *, *, #150, .F. ) ;
#31 = DIRECTION ( 'NONE',  ( 1.000000000000000000, 0.0000000000000000000, -0.0000000000000000000 ) ) ;
#32 = VECTOR ( 'NONE', #33, 1000.000000000000000 ) ;
#33 = DIRECTION ( 'NONE',  ( -0.0000000000000000000, -0.0000000000000000000, -1.000000000000000000 ) ) ;
#34 = CARTESIAN_POINT ( 'NONE',  ( 0.0000000000000000000, 0.0000000000000000000, 2.000000000000000000 ) ) ;
#35 = VECTOR ( 'NONE', #111, 1000.000000000000000 ) ;
#36 = PERSON_AND_ORGANIZATION_ROLE ( 'classification_officer' ) ;
#37 = PERSON_AND_ORGANIZATION_ROLE ( 'design_owner' ) ;
#38 = PERSON_AND_ORGANIZATION ( #46, #121 ) ;
#39 = ORIENTED_EDGE ( 'NONE', *, *, #134, .F. ) ;
#40 = DATE_AND_TIME ( #79, #10 ) ;
#41 = DIRECTION ( 'NONE',  ( 0.0000000000000000000, 0.0000000000000000000, 1.000000000000000000 ) ) ;
#42 = COORDINATED_UNIVERSAL_TIME_OFFSET ( 5, 0, .BEHIND. ) ;
#43 = DIRECTION ( 'NONE',  ( 0.0000000000000000000, 0.0000000000000000000, 1.000000000000000000 ) ) ;
#44 = APPROVAL_PERSON_ORGANIZATION ( #118, #26, #114 ) ;
#45 = EDGE_CURVE ( 'NONE', #17, #58, #56, .T. ) ;
#46 = PERSON ( 'UNSPECIFIED', 'UNSPECIFIED', 'UNSPECIFIED', ('UNSPECIFIED'), ('UNSPECIFIED'), ('UNSPECIFIED') ) ;
#47 = DIRECTION ( 'NONE',  ( 1.000000000000000000, 0.0000000000000000000, 0.0000000000000000000 ) ) ;
#48 = PERSON_AND_ORGANIZATION ( #46, #121 ) ;
#49 = DIRECTION ( 'NONE',  ( -0.0000000000000000000, -0.0000000000000000000, -1.000000000000000000 ) ) ;
#50 = DIRECTION ( 'NONE',  ( 1.000000000000000000, 0.0000000000000000000, 0.0000000000000000000 ) ) ;
#51 = DIRECTION ( 'NONE',  ( -1.000000000000000000, 0.0000000000000000000, 0.0000000000000000000 ) ) ;
#52 = COORDINATED_UNIVERSAL_TIME_OFFSET ( 5, 0, .BEHIND. ) ;
#53 = LINE ( 'NONE', #158, #35 ) ;
#54 = PLANE ( 'NONE',  #149 ) ;
#55 = UNCERTAINTY_MEASURE_WITH_UNIT (LENGTH_MEASURE( 1.000000000000000100E-005 ), #141, 'distance_accuracy_value', 'NONE');
#56 = CIRCLE ( 'NONE', #74, 25.00000000000000000 ) ;
#57 = SECURITY_CLASSIFICATION_LEVEL ( 'unclassified' ) ;
#58 = VERTEX_POINT ( 'NONE', #155 ) ;
#59 = AXIS2_PLACEMENT_3D ( 'NONE', #168, #145, #5 ) ;
#60 = EDGE_CURVE ( 'NONE', #58, #17, #144, .T. ) ;
#61 = FACE_OUTER_BOUND ( 'NONE', #19, .T. ) ;
#62 = COORDINATED_UNIVERSAL_TIME_OFFSET ( 5, 0, .BEHIND. ) ;
#63 = LOCAL_TIME ( 17, 0, 30.00000000000000000, #16 ) ;
#64 = ORIENTED_EDGE ( 'NONE', *, *, #60, .F. ) ;
#65 = DIRECTION ( 'NONE',  ( -1.000000000000000000, 0.0000000000000000000, 0.0000000000000000000 ) ) ;
#66 = CARTESIAN_POINT ( 'NONE',  ( 0.0000000000000000000, 0.0000000000000000000, 0.0000000000000000000 ) ) ;
#67 = CARTESIAN_POINT ( 'NONE',  ( 0.0000000000000000000, 0.0000000000000000000, 2.000000000000000000 ) ) ;
#68 = DATE_AND_TIME ( #87, #28 ) ;
#69 = CARTESIAN_POINT ( 'NONE',  ( 25.00000000000000000, 3.061616997868383000E-015, 0.0000000000000000000 ) ) ;
#70 = DATE_TIME_ROLE ( 'creation_date' ) ;
#71 = PRODUCT_RELATED_PRODUCT_CATEGORY ( 'detail', '', ( #113 ) ) ;
#72 = APPROVAL_STATUS ( 'not_yet_approved' ) ;
#73 = DIRECTION ( 'NONE',  ( 0.0000000000000000000, 0.0000000000000000000, 1.000000000000000000 ) ) ;
#74 = AXIS2_PLACEMENT_3D ( 'NONE', #123, #3, #164 ) ;
#75 = PERSON_AND_ORGANIZATION ( #46, #121 ) ;
#76 = ORIENTED_EDGE ( 'NONE', *, *, #150, .T. ) ;
#77 = APPLICATION_PROTOCOL_DEFINITION ( 'international standard', 'config_control_design', 1994, #169 ) ;
#78 = CARTESIAN_POINT ( 'NONE',  ( 25.00000000000000000, 3.061616997868383000E-015, 2.000000000000000000 ) ) ;
#79 = CALENDAR_DATE ( 2019, 15, 1 ) ;
#80 = EDGE_LOOP ( 'NONE', ( #64, #23 ) ) ;
#81 = DATE_AND_TIME ( #102, #97 ) ;
#82 = FACE_OUTER_BOUND ( 'NONE', #125, .T. ) ;
#83 = ORIENTED_EDGE ( 'NONE', *, *, #45, .T. ) ;
#84 = DIRECTION ( 'NONE',  ( 1.000000000000000000, 0.0000000000000000000, 0.0000000000000000000 ) ) ;
#85 = CC_DESIGN_PERSON_AND_ORGANIZATION_ASSIGNMENT ( #38, #36, ( #133 ) ) ;
#86 = EDGE_CURVE ( 'NONE', #94, #129, #103, .T. ) ;
#87 = CALENDAR_DATE ( 2019, 15, 1 ) ;
#88 = APPLICATION_CONTEXT ( 'configuration controlled 3d designs of mechanical parts and assemblies' ) ;
#89 = DIRECTION ( 'NONE',  ( 1.000000000000000000, 0.0000000000000000000, -0.0000000000000000000 ) ) ;
#90 = MECHANICAL_CONTEXT ( 'NONE', #169, 'mechanical' ) ;
#91 = ORIENTED_EDGE ( 'NONE', *, *, #60, .T. ) ;
#92 = PRODUCT_DEFINITION ( 'UNKNOWN', '', #157, #171 ) ;
#93 = AXIS2_PLACEMENT_3D ( 'NONE', #34, #73, #47 ) ;
#94 = VERTEX_POINT ( 'NONE', #139 ) ;
#95 = DATE_AND_TIME ( #7, #135 ) ;
#96 = CC_DESIGN_PERSON_AND_ORGANIZATION_ASSIGNMENT ( #48, #37, ( #113 ) ) ;
#97 = LOCAL_TIME ( 17, 0, 30.00000000000000000, #52 ) ;
#98 = APPROVAL_STATUS ( 'not_yet_approved' ) ;
#99 = PERSON_AND_ORGANIZATION ( #46, #121 ) ;
#100 = CARTESIAN_POINT ( 'NONE',  ( 0.0000000000000000000, 0.0000000000000000000, 0.0000000000000000000 ) ) ;
#101 = PERSON_AND_ORGANIZATION_ROLE ( 'design_supplier' ) ;
#102 = CALENDAR_DATE ( 2019, 15, 1 ) ;
#103 = CIRCLE ( 'NONE', #110, 25.00000000000000000 ) ;
#104 = ORIENTED_EDGE ( 'NONE', *, *, #86, .T. ) ;
#105 = CC_DESIGN_APPROVAL ( #161, ( #92 ) ) ;
#106 = PRODUCT_DEFINITION_SHAPE ( 'NONE', 'NONE',  #92 ) ;
#107 = APPROVAL_DATE_TIME ( #81, #161 ) ;
#108 = CARTESIAN_POINT ( 'NONE',  ( 0.0000000000000000000, 0.0000000000000000000, 2.000000000000000000 ) ) ;
#109 = CARTESIAN_POINT ( 'NONE',  ( 0.0000000000000000000, 0.0000000000000000000, 2.000000000000000000 ) ) ;
#110 = AXIS2_PLACEMENT_3D ( 'NONE', #108, #41, #50 ) ;
#111 = DIRECTION ( 'NONE',  ( -0.0000000000000000000, -0.0000000000000000000, -1.000000000000000000 ) ) ;
#112 = PERSON_AND_ORGANIZATION_ROLE ( 'creator' ) ;
#113 = PRODUCT ( 'Web Model 12253_12253', 'Web Model 12253_12253', '', ( #90 ) ) ;
#114 = APPROVAL_ROLE ( '' ) ;
#115 = CC_DESIGN_APPROVAL ( #26, ( #133 ) ) ;
#116 = PERSON_AND_ORGANIZATION ( #46, #121 ) ;
#117 = ADVANCED_FACE ( 'NONE', ( #61 ), #170, .T. ) ;
#118 = PERSON_AND_ORGANIZATION ( #46, #121 ) ;
#119 =( GEOMETRIC_REPRESENTATION_CONTEXT ( 3 ) GLOBAL_UNCERTAINTY_ASSIGNED_CONTEXT ( ( #55 ) ) GLOBAL_UNIT_ASSIGNED_CONTEXT ( ( #141, #128, #21 ) ) REPRESENTATION_CONTEXT ( 'NONE', 'WORKASPACE' ) );
#120 = FACE_OUTER_BOUND ( 'NONE', #27, .T. ) ;
#121 = ORGANIZATION ( 'UNSPECIFIED', 'UNSPECIFIED', '' ) ;
#122 = CIRCLE ( 'NONE', #93, 25.00000000000000000 ) ;
#123 = CARTESIAN_POINT ( 'NONE',  ( 0.0000000000000000000, 0.0000000000000000000, 0.0000000000000000000 ) ) ;
#124 = PLANE ( 'NONE',  #173 ) ;
#125 = EDGE_LOOP ( 'NONE', ( #165, #104 ) ) ;
#126 = APPROVAL_ROLE ( '' ) ;
#127 = DIRECTION ( 'NONE',  ( 0.0000000000000000000, 0.0000000000000000000, 1.000000000000000000 ) ) ;
#128 =( NAMED_UNIT ( * ) PLANE_ANGLE_UNIT ( ) SI_UNIT ( $, .RADIAN. ) );
#129 = VERTEX_POINT ( 'NONE', #153 ) ;
#130 = APPROVAL_DATE_TIME ( #40, #26 ) ;
#131 = LINE ( 'NONE', #78, #32 ) ;
#132 = ORIENTED_EDGE ( 'NONE', *, *, #86, .F. ) ;
#133 = SECURITY_CLASSIFICATION ( '', '', #57 ) ;
#134 = EDGE_CURVE ( 'NONE', #129, #94, #122, .T. ) ;
#135 = LOCAL_TIME ( 17, 0, 30.00000000000000000, #42 ) ;
#136 = CLOSED_SHELL ( 'NONE', ( #15, #117, #25, #152 ) ) ;
#137 = CARTESIAN_POINT ( 'NONE',  ( 0.0000000000000000000, 0.0000000000000000000, 2.000000000000000000 ) ) ;
#138 = EDGE_CURVE ( 'NONE', #129, #58, #53, .T. ) ;
#139 = CARTESIAN_POINT ( 'NONE',  ( 25.00000000000000000, 3.061616997868383000E-015, 2.000000000000000000 ) ) ;
#140 = MANIFOLD_SOLID_BREP ( '34600-1-solid1', #136 ) ;
#141 =( LENGTH_UNIT ( ) NAMED_UNIT ( * ) SI_UNIT ( .MILLI., .METRE. ) );
#142 = AXIS2_PLACEMENT_3D ( 'NONE', #137, #49, #65 ) ;
#143 = APPROVAL_PERSON_ORGANIZATION ( #162, #161, #126 ) ;
#144 = CIRCLE ( 'NONE', #4, 25.00000000000000000 ) ;
#145 = DIRECTION ( 'NONE',  ( 0.0000000000000000000, 0.0000000000000000000, 1.000000000000000000 ) ) ;
#146 = APPLICATION_PROTOCOL_DEFINITION ( 'international standard', 'config_control_design', 1994, #88 ) ;
#147 = CC_DESIGN_DATE_AND_TIME_ASSIGNMENT ( #166, #167, ( #133 ) ) ;
#148 = APPROVAL_PERSON_ORGANIZATION ( #99, #12, #9 ) ;
#149 = AXIS2_PLACEMENT_3D ( 'NONE', #100, #127, #89 ) ;
#150 = EDGE_CURVE ( 'NONE', #94, #17, #131, .T. ) ;
#151 = PERSON_AND_ORGANIZATION ( #46, #121 ) ;
#152 = ADVANCED_FACE ( 'NONE', ( #29 ), #54, .F. ) ;
#153 = CARTESIAN_POINT ( 'NONE',  ( -25.00000000000000000, 0.0000000000000000000, 2.000000000000000000 ) ) ;
#154 = COORDINATED_UNIVERSAL_TIME_OFFSET ( 5, 0, .BEHIND. ) ;
#155 = CARTESIAN_POINT ( 'NONE',  ( -25.00000000000000000, 0.0000000000000000000, 0.0000000000000000000 ) ) ;
#156 = CALENDAR_DATE ( 2019, 15, 1 ) ;
#157 = PRODUCT_DEFINITION_FORMATION_WITH_SPECIFIED_SOURCE ( 'ANY', '', #113, .NOT_KNOWN. ) ;
#158 = CARTESIAN_POINT ( 'NONE',  ( -25.00000000000000000, 0.0000000000000000000, 2.000000000000000000 ) ) ;
#159 = ORIENTED_EDGE ( 'NONE', *, *, #138, .T. ) ;
#160 = CYLINDRICAL_SURFACE ( 'NONE', #13, 25.00000000000000000 ) ;
#161 = APPROVAL ( #22, 'UNSPECIFIED' ) ;
#162 = PERSON_AND_ORGANIZATION ( #46, #121 ) ;
#163 = CC_DESIGN_PERSON_AND_ORGANIZATION_ASSIGNMENT ( #151, #8, ( #92 ) ) ;
#164 = DIRECTION ( 'NONE',  ( 1.000000000000000000, 0.0000000000000000000, 0.0000000000000000000 ) ) ;
#165 = ORIENTED_EDGE ( 'NONE', *, *, #134, .T. ) ;
#166 = DATE_AND_TIME ( #156, #63 ) ;
#167 = DATE_TIME_ROLE ( 'classification_date' ) ;
#168 = CARTESIAN_POINT ( 'NONE',  ( 0.0000000000000000000, 0.0000000000000000000, 0.0000000000000000000 ) ) ;
#169 = APPLICATION_CONTEXT ( 'configuration controlled 3d designs of mechanical parts and assemblies' ) ;
#170 = CYLINDRICAL_SURFACE ( 'NONE', #142, 25.00000000000000000 ) ;
#171 = DESIGN_CONTEXT ( 'detailed design', #88, 'design' ) ;
#172 = CC_DESIGN_PERSON_AND_ORGANIZATION_ASSIGNMENT ( #75, #101, ( #157 ) ) ;
#173 = AXIS2_PLACEMENT_3D ( 'NONE', #67, #2, #31 ) ;
#174 = CC_DESIGN_APPROVAL ( #12, ( #157 ) ) ;
#175 = CC_DESIGN_DATE_AND_TIME_ASSIGNMENT ( #95, #70, ( #92 ) ) ;
ENDSEC;
END-ISO-10303-21;
