ISO-10303-21;
HEADER;
FILE_DESCRIPTION (( 'STEP AP203' ),
    '1' );
FILE_NAME ('20179-E0W.STEP',
    '2018-06-01T18:09:21',
    ( 'admin' ),
    ( '' ),
    'SwSTEP 2.0',
    'SolidWorks 2016',
    '' );
FILE_SCHEMA (( 'CONFIG_CONTROL_DESIGN' ));
ENDSEC;

DATA;
#1 = PRODUCT_DEFINITION ( 'UNKNOWN', '', #303, #31 ) ;
#2 = DIRECTION ( 'NONE',  ( 0.0000000000000000000, -1.000000000000000000, -1.707404996040163800E-016 ) ) ;
#3 = AXIS2_PLACEMENT_3D ( 'NONE', #52, #312, #219 ) ;
#4 = CARTESIAN_POINT ( 'NONE',  ( 0.0000000000000000000, 0.0000000000000000000, 0.06868387845785986500 ) ) ;
#5 = CARTESIAN_POINT ( 'NONE',  ( 0.0000000000000000000, 0.0000000000000000000, 0.0000000000000000000 ) ) ;
#6 = LINE ( 'NONE', #41, #102 ) ;
#7 = ADVANCED_FACE ( 'NONE', ( #38 ), #176, .F. ) ;
#8 = DATE_TIME_ROLE ( 'classification_date' ) ;
#9 = CIRCLE ( 'NONE', #50, 0.4944322300693980700 ) ;
#10 = CC_DESIGN_PERSON_AND_ORGANIZATION_ASSIGNMENT ( #57, #323, ( #69 ) ) ;
#11 = APPROVAL_DATE_TIME ( #252, #268 ) ;
#12 = EDGE_CURVE ( 'NONE', #294, #237, #203, .T. ) ;
#13 = VERTEX_POINT ( 'NONE', #22 ) ;
#14 = ORIENTED_EDGE ( 'NONE', *, *, #269, .F. ) ;
#15 = CARTESIAN_POINT ( 'NONE',  ( 0.0000000000000000000, 0.0000000000000000000, 12.83159726428463200 ) ) ;
#16 = LINE ( 'NONE', #180, #241 ) ;
#17 = CARTESIAN_POINT ( 'NONE',  ( 0.0000000000000000000, 0.0000000000000000000, 12.83159726428463200 ) ) ;
#18 = EDGE_LOOP ( 'NONE', ( #279, #140, #208 ) ) ;
#19 = DIRECTION ( 'NONE',  ( 0.0000000000000000000, -1.000000000000000000, -1.878145495644180300E-016 ) ) ;
#20 = CARTESIAN_POINT ( 'NONE',  ( 0.0000000000000000000, 0.0000000000000000000, 12.83159726428463200 ) ) ;
#21 = DATE_TIME_ROLE ( 'creation_date' ) ;
#22 = CARTESIAN_POINT ( 'NONE',  ( 0.0000000000000000000, 1.582213493510985100E-015, -0.08879643650276909700 ) ) ;
#23 = CARTESIAN_POINT ( 'NONE',  ( 0.0000000000000000000, -0.4921342802187114200, -0.07942040410930299700 ) ) ;
#24 = PERSON_AND_ORGANIZATION_ROLE ( 'classification_officer' ) ;
#25 = CALENDAR_DATE ( 2018, 1, 6 ) ;
#26 = DIRECTION ( 'NONE',  ( -0.0000000000000000000, -1.836909530733398300E-016, 1.000000000000000000 ) ) ;
#27 = DIRECTION ( 'NONE',  ( 0.0000000000000000000, 0.0000000000000000000, 1.000000000000000000 ) ) ;
#28 = APPLICATION_PROTOCOL_DEFINITION ( 'international standard', 'config_control_design', 1994, #234 ) ;
#29 = APPROVAL ( #259, 'UNSPECIFIED' ) ;
#30 = FACE_OUTER_BOUND ( 'NONE', #18, .T. ) ;
#31 = DESIGN_CONTEXT ( 'detailed design', #321, 'design' ) ;
#32 = DIRECTION ( 'NONE',  ( 0.0000000000000000000, -0.6932897982899630700, 0.7206589037728337000 ) ) ;
#33 = ADVANCED_BREP_SHAPE_REPRESENTATION ( '20179-E0W', ( #215, #318 ), #78 ) ;
#34 = EDGE_CURVE ( 'NONE', #237, #225, #119, .T. ) ;
#35 = EDGE_LOOP ( 'NONE', ( #329, #330, #189, #188 ) ) ;
#36 = CARTESIAN_POINT ( 'NONE',  ( 0.0000000000000000000, 2.371637140654011200E-015, -0.07942040410930237300 ) ) ;
#37 = CARTESIAN_POINT ( 'NONE',  ( 0.0000000000000000000, 0.0000000000000000000, 12.83159726428463200 ) ) ;
#38 = FACE_OUTER_BOUND ( 'NONE', #212, .T. ) ;
#39 = AXIS2_PLACEMENT_3D ( 'NONE', #64, #164, #54 ) ;
#40 = ORIENTED_EDGE ( 'NONE', *, *, #186, .T. ) ;
#41 = CARTESIAN_POINT ( 'NONE',  ( 6.123233995736767300E-017, 0.5000000000000001100, -0.07124416812692807600 ) ) ;
#42 = DIRECTION ( 'NONE',  ( 1.000000000000000000, 0.0000000000000000000, 0.0000000000000000000 ) ) ;
#43 = ORGANIZATION ( 'UNSPECIFIED', 'UNSPECIFIED', '' ) ;
#44 = DIRECTION ( 'NONE',  ( 0.0000000000000000000, 1.836909530733566100E-016, -1.000000000000000000 ) ) ;
#45 = DIRECTION ( 'NONE',  ( -0.0000000000000000000, -1.836909530733566100E-016, 1.000000000000000000 ) ) ;
#46 = ORIENTED_EDGE ( 'NONE', *, *, #12, .T. ) ;
#47 = VECTOR ( 'NONE', #32, 39.37007874015748100 ) ;
#48 = DIRECTION ( 'NONE',  ( -0.0000000000000000000, -1.836909530733566100E-016, 1.000000000000000000 ) ) ;
#49 = CIRCLE ( 'NONE', #72, 0.4944322300693980700 ) ;
#50 = AXIS2_PLACEMENT_3D ( 'NONE', #145, #95, #127 ) ;
#51 = CALENDAR_DATE ( 2018, 1, 6 ) ;
#52 = CARTESIAN_POINT ( 'NONE',  ( 0.0000000000000000000, 2.570351623885276000E-017, -0.07124416812692818700 ) ) ;
#53 = CALENDAR_DATE ( 2018, 1, 6 ) ;
#54 = DIRECTION ( 'NONE',  ( 0.0000000000000000000, -1.000000000000000000, -1.734694233534695400E-016 ) ) ;
#55 = VECTOR ( 'NONE', #213, 39.37007874015748100 ) ;
#56 = PERSON_AND_ORGANIZATION_ROLE ( 'creator' ) ;
#57 = PERSON_AND_ORGANIZATION ( #143, #43 ) ;
#58 = ORIENTED_EDGE ( 'NONE', *, *, #282, .F. ) ;
#59 = DIRECTION ( 'NONE',  ( 0.0000000000000000000, -1.000000000000000000, -1.878145495644180300E-016 ) ) ;
#60 = LOCAL_TIME ( 14, 9, 21.00000000000000000, #157 ) ;
#61 = AXIS2_PLACEMENT_3D ( 'NONE', #98, #45, #59 ) ;
#62 = PERSON_AND_ORGANIZATION ( #143, #43 ) ;
#63 =( NAMED_UNIT ( * ) SI_UNIT ( $, .STERADIAN. ) SOLID_ANGLE_UNIT ( ) );
#64 = CARTESIAN_POINT ( 'NONE',  ( 0.0000000000000000000, 2.371637140654011200E-015, -0.07942040410930237300 ) ) ;
#65 = ORIENTED_EDGE ( 'NONE', *, *, #139, .F. ) ;
#66 = CALENDAR_DATE ( 2018, 1, 6 ) ;
#67 = DIRECTION ( 'NONE',  ( -1.000000000000000000, 0.0000000000000000000, 0.0000000000000000000 ) ) ;
#68 = VERTEX_POINT ( 'NONE', #261 ) ;
#69 = PRODUCT ( '20179-E0W', '20179-E0W', '', ( #137 ) ) ;
#70 = CARTESIAN_POINT ( 'NONE',  ( 6.123233995736768500E-017, -0.5000000000000002200, 0.08278252628187811300 ) ) ;
#71 = DIRECTION ( 'NONE',  ( 0.0000000000000000000, 1.000000000000000000, 1.755382129412328500E-016 ) ) ;
#72 = AXIS2_PLACEMENT_3D ( 'NONE', #152, #281, #220 ) ;
#73 = ORIENTED_EDGE ( 'NONE', *, *, #160, .T. ) ;
#74 = ORIENTED_EDGE ( 'NONE', *, *, #161, .T. ) ;
#75 = CC_DESIGN_APPROVAL ( #268, ( #1 ) ) ;
#76 = DIRECTION ( 'NONE',  ( -1.000000000000000000, 0.0000000000000000000, -0.0000000000000000000 ) ) ;
#77 = CARTESIAN_POINT ( 'NONE',  ( 0.0000000000000000000, -2.589794055839532800E-018, 0.08278252628187819700 ) ) ;
#78 =( GEOMETRIC_REPRESENTATION_CONTEXT ( 3 ) GLOBAL_UNCERTAINTY_ASSIGNED_CONTEXT ( ( #165 ) ) GLOBAL_UNIT_ASSIGNED_CONTEXT ( ( #169, #159, #63 ) ) REPRESENTATION_CONTEXT ( 'NONE', 'WORKASPACE' ) );
#79 = CONICAL_SURFACE ( 'NONE', #309, 0.5000000000000002200, 0.7853981633974912400 ) ;
#80 = AXIS2_PLACEMENT_3D ( 'NONE', #290, #155, #2 ) ;
#81 =( LENGTH_UNIT ( ) NAMED_UNIT ( * ) SI_UNIT ( $, .METRE. ) );
#82 = EDGE_CURVE ( 'NONE', #154, #225, #146, .T. ) ;
#83 = ADVANCED_FACE ( 'NONE', ( #209 ), #233, .T. ) ;
#84 = DIRECTION ( 'NONE',  ( 0.0000000000000000000, 1.836909530733398300E-016, -1.000000000000000000 ) ) ;
#85 = SPHERICAL_SURFACE ( 'NONE', #231, 6.225078740157481000 ) ;
#86 = APPROVAL_STATUS ( 'not_yet_approved' ) ;
#87 = DIRECTION ( 'NONE',  ( 0.0000000000000000000, -1.000000000000000000, -1.691495201727654800E-016 ) ) ;
#88 = ORIENTED_EDGE ( 'NONE', *, *, #313, .F. ) ;
#89 = DIRECTION ( 'NONE',  ( 0.0000000000000000000, 0.7071067811865779900, -0.7071067811865170400 ) ) ;
#90 = FACE_OUTER_BOUND ( 'NONE', #99, .T. ) ;
#91 = DIRECTION ( 'NONE',  ( 0.0000000000000000000, -1.000000000000000000, -1.691495201727654800E-016 ) ) ;
#92 = EDGE_CURVE ( 'NONE', #264, #68, #306, .T. ) ;
#93 = LOCAL_TIME ( 14, 9, 21.00000000000000000, #101 ) ;
#94 = CARTESIAN_POINT ( 'NONE',  ( 0.0000000000000000000, -2.589794055839532800E-018, 0.08278252628187819700 ) ) ;
#95 = DIRECTION ( 'NONE',  ( -0.0000000000000000000, -1.836909530733566100E-016, 1.000000000000000000 ) ) ;
#96 = LINE ( 'NONE', #135, #168 ) ;
#97 = AXIS2_PLACEMENT_3D ( 'NONE', #4, #195, #227 ) ;
#98 = CARTESIAN_POINT ( 'NONE',  ( 0.0000000000000000000, 0.0000000000000000000, 0.06868387845785986500 ) ) ;
#99 = EDGE_LOOP ( 'NONE', ( #276, #216, #304, #197 ) ) ;
#100 = DIRECTION ( 'NONE',  ( 0.0000000000000000000, 0.0000000000000000000, 1.000000000000000000 ) ) ;
#101 = COORDINATED_UNIVERSAL_TIME_OFFSET ( 5, 0, .BEHIND. ) ;
#102 = VECTOR ( 'NONE', #299, 39.37007874015748100 ) ;
#103 = DIRECTION ( 'NONE',  ( 1.000000000000000000, -1.224646799147353200E-016, -2.249565377136128300E-032 ) ) ;
#104 = ADVANCED_FACE ( 'NONE', ( #270 ), #134, .T. ) ;
#105 = ORIENTED_EDGE ( 'NONE', *, *, #160, .F. ) ;
#106 = CC_DESIGN_SECURITY_CLASSIFICATION ( #283, ( #303 ) ) ;
#107 = FACE_OUTER_BOUND ( 'NONE', #243, .T. ) ;
#108 = CIRCLE ( 'NONE', #207, 0.5000000000000001100 ) ;
#109 = DATE_AND_TIME ( #66, #206 ) ;
#110 = PERSON_AND_ORGANIZATION ( #143, #43 ) ;
#111 = CARTESIAN_POINT ( 'NONE',  ( 0.0000000000000000000, -0.5000000000000001100, -0.07124416812692825600 ) ) ;
#112 = CC_DESIGN_PERSON_AND_ORGANIZATION_ASSIGNMENT ( #62, #56, ( #1 ) ) ;
#113 = SECURITY_CLASSIFICATION_LEVEL ( 'unclassified' ) ;
#114 = ORIENTED_EDGE ( 'NONE', *, *, #82, .T. ) ;
#115 = VERTEX_POINT ( 'NONE', #327 ) ;
#116 = CARTESIAN_POINT ( 'NONE',  ( 0.0000000000000000000, 0.0000000000000000000, 6.293762618615339500 ) ) ;
#117 = CARTESIAN_POINT ( 'NONE',  ( 0.0000000000000000000, 0.0000000000000000000, 6.293762618615339500 ) ) ;
#118 = ORIENTED_EDGE ( 'NONE', *, *, #324, .T. ) ;
#119 = LINE ( 'NONE', #111, #47 ) ;
#120 = CARTESIAN_POINT ( 'NONE',  ( 6.123233995736767300E-017, 0.5000000000000001100, -0.07124416812692809000 ) ) ;
#121 = DATE_AND_TIME ( #228, #202 ) ;
#122 = EDGE_LOOP ( 'NONE', ( #222, #141, #254, #124 ) ) ;
#123 = AXIS2_PLACEMENT_3D ( 'NONE', #17, #76, #27 ) ;
#124 = ORIENTED_EDGE ( 'NONE', *, *, #126, .T. ) ;
#125 = APPLICATION_PROTOCOL_DEFINITION ( 'international standard', 'config_control_design', 1994, #321 ) ;
#126 = EDGE_CURVE ( 'NONE', #115, #68, #275, .T. ) ;
#127 = DIRECTION ( 'NONE',  ( 0.0000000000000000000, -1.000000000000000000, -1.726631975225921800E-016 ) ) ;
#128 = CIRCLE ( 'NONE', #123, 12.92039370078739900 ) ;
#129 = CARTESIAN_POINT ( 'NONE',  ( 0.0000000000000000000, 0.4944322300693960200, 0.08835029621247970900 ) ) ;
#130 = CC_DESIGN_APPROVAL ( #29, ( #283 ) ) ;
#131 = AXIS2_PLACEMENT_3D ( 'NONE', #187, #42, #158 ) ;
#132 = CC_DESIGN_DATE_AND_TIME_ASSIGNMENT ( #109, #8, ( #283 ) ) ;
#133 = DIMENSIONAL_EXPONENTS ( 1.000000000000000000, 0.0000000000000000000, 0.0000000000000000000, 0.0000000000000000000, 0.0000000000000000000, 0.0000000000000000000, 0.0000000000000000000 ) ;
#134 = CONICAL_SURFACE ( 'NONE', #284, 0.5000000000000001100, 0.7660440750600230300 ) ;
#135 = CARTESIAN_POINT ( 'NONE',  ( 6.123233995736767300E-017, 0.5000000000000001100, 0.06868387845785996200 ) ) ;
#136 = PERSON_AND_ORGANIZATION ( #143, #43 ) ;
#137 = MECHANICAL_CONTEXT ( 'NONE', #234, 'mechanical' ) ;
#138 = APPROVAL_DATE_TIME ( #242, #29 ) ;
#139 = EDGE_CURVE ( 'NONE', #225, #154, #108, .T. ) ;
#140 = ORIENTED_EDGE ( 'NONE', *, *, #179, .T. ) ;
#141 = ORIENTED_EDGE ( 'NONE', *, *, #319, .F. ) ;
#142 = DIRECTION ( 'NONE',  ( 0.0000000000000000000, 1.000000000000000000, 1.707404996040163800E-016 ) ) ;
#143 = PERSON ( 'UNSPECIFIED', 'UNSPECIFIED', 'UNSPECIFIED', ('UNSPECIFIED'), ('UNSPECIFIED'), ('UNSPECIFIED') ) ;
#144 = DIRECTION ( 'NONE',  ( -0.0000000000000000000, -1.836909530733398300E-016, 1.000000000000000000 ) ) ;
#145 = CARTESIAN_POINT ( 'NONE',  ( 0.0000000000000000000, -3.612543020884927300E-018, 0.08835029621247984800 ) ) ;
#146 = CIRCLE ( 'NONE', #3, 0.5000000000000001100 ) ;
#147 = LINE ( 'NONE', #320, #162 ) ;
#148 = AXIS2_PLACEMENT_3D ( 'NONE', #116, #267, #305 ) ;
#149 = PERSON_AND_ORGANIZATION ( #143, #43 ) ;
#150 = COORDINATED_UNIVERSAL_TIME_OFFSET ( 5, 0, .BEHIND. ) ;
#151 = DIRECTION ( 'NONE',  ( -0.0000000000000000000, -1.836909530733398300E-016, 1.000000000000000000 ) ) ;
#152 = CARTESIAN_POINT ( 'NONE',  ( 0.0000000000000000000, -3.612543020884927300E-018, 0.08835029621247984800 ) ) ;
#153 = EDGE_CURVE ( 'NONE', #237, #294, #190, .T. ) ;
#154 = VERTEX_POINT ( 'NONE', #120 ) ;
#155 = DIRECTION ( 'NONE',  ( -0.0000000000000000000, -1.836909530733566100E-016, 1.000000000000000000 ) ) ;
#156 = LENGTH_MEASURE_WITH_UNIT ( LENGTH_MEASURE( 0.02539999999999999900 ), #81 );
#157 = COORDINATED_UNIVERSAL_TIME_OFFSET ( 5, 0, .BEHIND. ) ;
#158 = DIRECTION ( 'NONE',  ( 0.0000000000000000000, 0.0000000000000000000, -1.000000000000000000 ) ) ;
#159 =( NAMED_UNIT ( * ) PLANE_ANGLE_UNIT ( ) SI_UNIT ( $, .RADIAN. ) );
#160 = EDGE_CURVE ( 'NONE', #154, #115, #96, .T. ) ;
#161 = EDGE_CURVE ( 'NONE', #264, #218, #49, .T. ) ;
#162 = VECTOR ( 'NONE', #211, 39.37007874015748100 ) ;
#163 = PERSON_AND_ORGANIZATION ( #143, #43 ) ;
#164 = DIRECTION ( 'NONE',  ( 0.0000000000000000000, 1.836909530733398300E-016, -1.000000000000000000 ) ) ;
#165 = UNCERTAINTY_MEASURE_WITH_UNIT (LENGTH_MEASURE( 1.000000000000000100E-005 ), #169, 'distance_accuracy_value', 'NONE');
#166 = ADVANCED_FACE ( 'NONE', ( #181 ), #85, .F. ) ;
#167 = CARTESIAN_POINT ( 'NONE',  ( 0.0000000000000000000, 2.570351623885265200E-017, -0.07124416812692817300 ) ) ;
#168 = VECTOR ( 'NONE', #48, 39.37007874015748100 ) ;
#169 =( CONVERSION_BASED_UNIT ( 'INCH', #156 ) LENGTH_UNIT ( ) NAMED_UNIT ( #133 ) );
#170 = PERSON_AND_ORGANIZATION ( #143, #43 ) ;
#171 = ORIENTED_EDGE ( 'NONE', *, *, #269, .T. ) ;
#172 = ORIENTED_EDGE ( 'NONE', *, *, #12, .F. ) ;
#173 = LOCAL_TIME ( 14, 9, 21.00000000000000000, #328 ) ;
#174 = CIRCLE ( 'NONE', #205, 12.92039370078740000 ) ;
#175 = APPROVAL_DATE_TIME ( #300, #201 ) ;
#176 = SPHERICAL_SURFACE ( 'NONE', #232, 6.225078740157481000 ) ;
#177 = EDGE_LOOP ( 'NONE', ( #105, #114, #40, #246 ) ) ;
#178 = PERSON_AND_ORGANIZATION_ROLE ( 'creator' ) ;
#179 = EDGE_CURVE ( 'NONE', #13, #237, #128, .T. ) ;
#180 = CARTESIAN_POINT ( 'NONE',  ( 0.0000000000000000000, 0.5000000000000002200, 0.08278252628187828000 ) ) ;
#181 = FACE_OUTER_BOUND ( 'NONE', #292, .T. ) ;
#182 = APPROVAL_PERSON_ORGANIZATION ( #163, #268, #194 ) ;
#183 = CONICAL_SURFACE ( 'NONE', #263, 0.5000000000000002200, 0.7853981633974912400 ) ;
#184 = DIRECTION ( 'NONE',  ( 1.224646799147353200E-016, 1.000000000000000000, 0.0000000000000000000 ) ) ;
#185 = CC_DESIGN_APPROVAL ( #201, ( #303 ) ) ;
#186 = EDGE_CURVE ( 'NONE', #225, #68, #147, .T. ) ;
#187 = CARTESIAN_POINT ( 'NONE',  ( 0.0000000000000000000, 0.0000000000000000000, 6.293762618615339500 ) ) ;
#188 = ORIENTED_EDGE ( 'NONE', *, *, #248, .F. ) ;
#189 = ORIENTED_EDGE ( 'NONE', *, *, #313, .T. ) ;
#190 = CIRCLE ( 'NONE', #39, 0.4921342802186743400 ) ;
#191 = APPROVAL_ROLE ( '' ) ;
#192 = DIRECTION ( 'NONE',  ( 1.000000000000000000, 0.0000000000000000000, 0.0000000000000000000 ) ) ;
#193 = PRODUCT_RELATED_PRODUCT_CATEGORY ( 'detail', '', ( #69 ) ) ;
#194 = APPROVAL_ROLE ( '' ) ;
#195 = DIRECTION ( 'NONE',  ( -0.0000000000000000000, -1.836909530733566100E-016, 1.000000000000000000 ) ) ;
#196 = ADVANCED_FACE ( 'NONE', ( #30 ), #278, .T. ) ;
#197 = ORIENTED_EDGE ( 'NONE', *, *, #82, .F. ) ;
#198 = FACE_OUTER_BOUND ( 'NONE', #35, .T. ) ;
#199 = ORIENTED_EDGE ( 'NONE', *, *, #319, .T. ) ;
#200 = AXIS2_PLACEMENT_3D ( 'NONE', #20, #221, #87 ) ;
#201 = APPROVAL ( #86, 'UNSPECIFIED' ) ;
#202 = LOCAL_TIME ( 14, 9, 21.00000000000000000, #260 ) ;
#203 = CIRCLE ( 'NONE', #240, 0.4921342802186743400 ) ;
#204 = ORIENTED_EDGE ( 'NONE', *, *, #186, .F. ) ;
#205 = AXIS2_PLACEMENT_3D ( 'NONE', #15, #103, #184 ) ;
#206 = LOCAL_TIME ( 14, 9, 21.00000000000000000, #150 ) ;
#207 = AXIS2_PLACEMENT_3D ( 'NONE', #253, #151, #19 ) ;
#208 = ORIENTED_EDGE ( 'NONE', *, *, #153, .T. ) ;
#209 = FACE_OUTER_BOUND ( 'NONE', #177, .T. ) ;
#210 = DIRECTION ( 'NONE',  ( 0.0000000000000000000, -1.000000000000000000, -1.878145495644180300E-016 ) ) ;
#211 = DIRECTION ( 'NONE',  ( -0.0000000000000000000, -1.836909530733566100E-016, 1.000000000000000000 ) ) ;
#212 = EDGE_LOOP ( 'NONE', ( #14, #230, #74 ) ) ;
#213 = DIRECTION ( 'NONE',  ( 8.659560562355305100E-017, -0.7071067811865777700, -0.7071067811865172600 ) ) ;
#214 = ORIENTED_EDGE ( 'NONE', *, *, #34, .F. ) ;
#215 = MANIFOLD_SOLID_BREP ( '20179-001-1-solid1', #307 ) ;
#216 = ORIENTED_EDGE ( 'NONE', *, *, #153, .F. ) ;
#217 = ADVANCED_FACE ( 'NONE', ( #107 ), #310, .T. ) ;
#218 = VERTEX_POINT ( 'NONE', #129 ) ;
#219 = DIRECTION ( 'NONE',  ( 0.0000000000000000000, -1.000000000000000000, -1.878145495644180300E-016 ) ) ;
#220 = DIRECTION ( 'NONE',  ( 0.0000000000000000000, -1.000000000000000000, -1.726631975225921800E-016 ) ) ;
#221 = DIRECTION ( 'NONE',  ( 1.000000000000000000, 0.0000000000000000000, 0.0000000000000000000 ) ) ;
#222 = ORIENTED_EDGE ( 'NONE', *, *, #92, .F. ) ;
#223 = ADVANCED_FACE ( 'NONE', ( #285 ), #183, .T. ) ;
#224 = SHAPE_DEFINITION_REPRESENTATION ( #235, #33 ) ;
#225 = VERTEX_POINT ( 'NONE', #311 ) ;
#226 = CC_DESIGN_PERSON_AND_ORGANIZATION_ASSIGNMENT ( #149, #272, ( #303 ) ) ;
#227 = DIRECTION ( 'NONE',  ( 0.0000000000000000000, -1.000000000000000000, -1.878145495644180300E-016 ) ) ;
#228 = CALENDAR_DATE ( 2018, 1, 6 ) ;
#229 = CC_DESIGN_PERSON_AND_ORGANIZATION_ASSIGNMENT ( #245, #178, ( #303 ) ) ;
#230 = ORIENTED_EDGE ( 'NONE', *, *, #282, .T. ) ;
#231 = AXIS2_PLACEMENT_3D ( 'NONE', #117, #315, #291 ) ;
#232 = AXIS2_PLACEMENT_3D ( 'NONE', #239, #67, #71 ) ;
#233 = CYLINDRICAL_SURFACE ( 'NONE', #61, 0.5000000000000001100 ) ;
#234 = APPLICATION_CONTEXT ( 'configuration controlled 3d designs of mechanical parts and assemblies' ) ;
#235 = PRODUCT_DEFINITION_SHAPE ( 'NONE', 'NONE',  #1 ) ;
#236 = ORIENTED_EDGE ( 'NONE', *, *, #179, .F. ) ;
#237 = VERTEX_POINT ( 'NONE', #23 ) ;
#238 = CIRCLE ( 'NONE', #148, 6.225078740157481000 ) ;
#239 = CARTESIAN_POINT ( 'NONE',  ( 0.0000000000000000000, 0.0000000000000000000, 6.293762618615339500 ) ) ;
#240 = AXIS2_PLACEMENT_3D ( 'NONE', #36, #84, #325 ) ;
#241 = VECTOR ( 'NONE', #89, 39.37007874015748100 ) ;
#242 = DATE_AND_TIME ( #53, #173 ) ;
#243 = EDGE_LOOP ( 'NONE', ( #236, #262, #46 ) ) ;
#244 = AXIS2_PLACEMENT_3D ( 'NONE', #167, #26, #210 ) ;
#245 = PERSON_AND_ORGANIZATION ( #143, #43 ) ;
#246 = ORIENTED_EDGE ( 'NONE', *, *, #126, .F. ) ;
#247 = DIRECTION ( 'NONE',  ( -0.0000000000000000000, -1.836909530733566100E-016, 1.000000000000000000 ) ) ;
#248 = EDGE_CURVE ( 'NONE', #218, #115, #16, .T. ) ;
#249 = CIRCLE ( 'NONE', #131, 6.225078740157481000 ) ;
#250 = APPROVAL_PERSON_ORGANIZATION ( #110, #201, #326 ) ;
#251 = ADVANCED_FACE ( 'NONE', ( #90 ), #256, .T. ) ;
#252 = DATE_AND_TIME ( #51, #60 ) ;
#253 = CARTESIAN_POINT ( 'NONE',  ( 0.0000000000000000000, 2.570351623885276000E-017, -0.07124416812692818700 ) ) ;
#254 = ORIENTED_EDGE ( 'NONE', *, *, #248, .T. ) ;
#255 = CC_DESIGN_DATE_AND_TIME_ASSIGNMENT ( #121, #21, ( #1 ) ) ;
#256 = CONICAL_SURFACE ( 'NONE', #244, 0.5000000000000001100, 0.7660440750600230300 ) ;
#257 = EDGE_CURVE ( 'NONE', #13, #294, #174, .T. ) ;
#258 = EDGE_LOOP ( 'NONE', ( #280, #73, #88, #204 ) ) ;
#259 = APPROVAL_STATUS ( 'not_yet_approved' ) ;
#260 = COORDINATED_UNIVERSAL_TIME_OFFSET ( 5, 0, .BEHIND. ) ;
#261 = CARTESIAN_POINT ( 'NONE',  ( 0.0000000000000000000, -0.5000000000000002200, 0.08278252628187811300 ) ) ;
#262 = ORIENTED_EDGE ( 'NONE', *, *, #257, .T. ) ;
#263 = AXIS2_PLACEMENT_3D ( 'NONE', #77, #266, #296 ) ;
#264 = VERTEX_POINT ( 'NONE', #274 ) ;
#265 = APPROVAL_STATUS ( 'not_yet_approved' ) ;
#266 = DIRECTION ( 'NONE',  ( 0.0000000000000000000, 1.836909530733566100E-016, -1.000000000000000000 ) ) ;
#267 = DIRECTION ( 'NONE',  ( -1.000000000000000000, 1.224646799147353200E-016, 2.249565377136128300E-032 ) ) ;
#268 = APPROVAL ( #265, 'UNSPECIFIED' ) ;
#269 = EDGE_CURVE ( 'NONE', #302, #218, #249, .T. ) ;
#270 = FACE_OUTER_BOUND ( 'NONE', #273, .T. ) ;
#271 = APPROVAL_PERSON_ORGANIZATION ( #136, #29, #191 ) ;
#272 = PERSON_AND_ORGANIZATION_ROLE ( 'design_supplier' ) ;
#273 = EDGE_LOOP ( 'NONE', ( #172, #118, #65, #214 ) ) ;
#274 = CARTESIAN_POINT ( 'NONE',  ( -6.055048479497734800E-017, -0.4944322300693948000, 0.08835029621247961200 ) ) ;
#275 = CIRCLE ( 'NONE', #314, 0.5000000000000002200 ) ;
#276 = ORIENTED_EDGE ( 'NONE', *, *, #324, .F. ) ;
#277 = DIRECTION ( 'NONE',  ( 0.0000000000000000000, -1.000000000000000000, -1.707404996040163800E-016 ) ) ;
#278 = SPHERICAL_SURFACE ( 'NONE', #200, 12.92039370078740000 ) ;
#279 = ORIENTED_EDGE ( 'NONE', *, *, #257, .F. ) ;
#280 = ORIENTED_EDGE ( 'NONE', *, *, #139, .T. ) ;
#281 = DIRECTION ( 'NONE',  ( -0.0000000000000000000, -1.836909530733566100E-016, 1.000000000000000000 ) ) ;
#282 = EDGE_CURVE ( 'NONE', #302, #264, #238, .T. ) ;
#283 = SECURITY_CLASSIFICATION ( '', '', #113 ) ;
#284 = AXIS2_PLACEMENT_3D ( 'NONE', #287, #144, #288 ) ;
#285 = FACE_OUTER_BOUND ( 'NONE', #122, .T. ) ;
#286 = CARTESIAN_POINT ( 'NONE',  ( 6.026906710205344500E-017, 0.4921342802187161900, -0.07942040410930292800 ) ) ;
#287 = CARTESIAN_POINT ( 'NONE',  ( 0.0000000000000000000, 2.570351623885265200E-017, -0.07124416812692817300 ) ) ;
#288 = DIRECTION ( 'NONE',  ( 0.0000000000000000000, -1.000000000000000000, -1.878145495644180300E-016 ) ) ;
#289 = ADVANCED_FACE ( 'NONE', ( #322 ), #308, .T. ) ;
#290 = CARTESIAN_POINT ( 'NONE',  ( 0.0000000000000000000, -2.589794055839532800E-018, 0.08278252628187819700 ) ) ;
#291 = DIRECTION ( 'NONE',  ( 0.0000000000000000000, 1.000000000000000000, 1.755382129412328500E-016 ) ) ;
#292 = EDGE_LOOP ( 'NONE', ( #58, #171, #199 ) ) ;
#293 = ADVANCED_FACE ( 'NONE', ( #198 ), #79, .T. ) ;
#294 = VERTEX_POINT ( 'NONE', #286 ) ;
#295 = CC_DESIGN_PERSON_AND_ORGANIZATION_ASSIGNMENT ( #170, #24, ( #283 ) ) ;
#296 = DIRECTION ( 'NONE',  ( 0.0000000000000000000, 1.000000000000000000, 1.707404996040163800E-016 ) ) ;
#297 = CARTESIAN_POINT ( 'NONE',  ( 0.0000000000000000000, 1.524666784414922500E-015, 0.06868387845785878200 ) ) ;
#298 = CARTESIAN_POINT ( 'NONE',  ( 0.0000000000000000000, -2.589794055839532800E-018, 0.08278252628187819700 ) ) ;
#299 = DIRECTION ( 'NONE',  ( 8.490351323573172000E-017, 0.6932897982899628400, 0.7206589037728339300 ) ) ;
#300 = DATE_AND_TIME ( #25, #93 ) ;
#301 = AXIS2_PLACEMENT_3D ( 'NONE', #37, #316, #91 ) ;
#302 = VERTEX_POINT ( 'NONE', #297 ) ;
#303 = PRODUCT_DEFINITION_FORMATION_WITH_SPECIFIED_SOURCE ( 'ANY', '', #69, .NOT_KNOWN. ) ;
#304 = ORIENTED_EDGE ( 'NONE', *, *, #34, .T. ) ;
#305 = DIRECTION ( 'NONE',  ( -1.224646799147353200E-016, -1.000000000000000000, 0.0000000000000000000 ) ) ;
#306 = LINE ( 'NONE', #70, #55 ) ;
#307 = CLOSED_SHELL ( 'NONE', ( #104, #293, #289, #217, #7, #166, #196, #83, #223, #251 ) ) ;
#308 = CYLINDRICAL_SURFACE ( 'NONE', #97, 0.5000000000000001100 ) ;
#309 = AXIS2_PLACEMENT_3D ( 'NONE', #298, #44, #142 ) ;
#310 = SPHERICAL_SURFACE ( 'NONE', #301, 12.92039370078740000 ) ;
#311 = CARTESIAN_POINT ( 'NONE',  ( 0.0000000000000000000, -0.5000000000000001100, -0.07124416812692828400 ) ) ;
#312 = DIRECTION ( 'NONE',  ( -0.0000000000000000000, -1.836909530733398300E-016, 1.000000000000000000 ) ) ;
#313 = EDGE_CURVE ( 'NONE', #68, #115, #317, .T. ) ;
#314 = AXIS2_PLACEMENT_3D ( 'NONE', #94, #247, #277 ) ;
#315 = DIRECTION ( 'NONE',  ( -1.000000000000000000, 0.0000000000000000000, 0.0000000000000000000 ) ) ;
#316 = DIRECTION ( 'NONE',  ( 1.000000000000000000, 0.0000000000000000000, 0.0000000000000000000 ) ) ;
#317 = CIRCLE ( 'NONE', #80, 0.5000000000000002200 ) ;
#318 = AXIS2_PLACEMENT_3D ( 'NONE', #5, #100, #192 ) ;
#319 = EDGE_CURVE ( 'NONE', #218, #264, #9, .T. ) ;
#320 = CARTESIAN_POINT ( 'NONE',  ( 0.0000000000000000000, -0.5000000000000001100, 0.06868387845785976800 ) ) ;
#321 = APPLICATION_CONTEXT ( 'configuration controlled 3d designs of mechanical parts and assemblies' ) ;
#322 = FACE_OUTER_BOUND ( 'NONE', #258, .T. ) ;
#323 = PERSON_AND_ORGANIZATION_ROLE ( 'design_owner' ) ;
#324 = EDGE_CURVE ( 'NONE', #294, #154, #6, .T. ) ;
#325 = DIRECTION ( 'NONE',  ( 0.0000000000000000000, -1.000000000000000000, -1.734694233534695400E-016 ) ) ;
#326 = APPROVAL_ROLE ( '' ) ;
#327 = CARTESIAN_POINT ( 'NONE',  ( 6.123233995736768500E-017, 0.5000000000000002200, 0.08278252628187828000 ) ) ;
#328 = COORDINATED_UNIVERSAL_TIME_OFFSET ( 5, 0, .BEHIND. ) ;
#329 = ORIENTED_EDGE ( 'NONE', *, *, #161, .F. ) ;
#330 = ORIENTED_EDGE ( 'NONE', *, *, #92, .T. ) ;
ENDSEC;
END-ISO-10303-21;
