ISO-10303-21;
HEADER;
FILE_DESCRIPTION (( 'STEP AP203' ),
    '1' );
FILE_NAME ('7279-E0W.STEP',
    '2020-10-09T18:58:09',
    ( '' ),
    ( '' ),
    'SwSTEP 2.0',
    'SolidWorks 2018',
    '' );
FILE_SCHEMA (( 'CONFIG_CONTROL_DESIGN' ));
ENDSEC;

DATA;
#1 =( GEOMETRIC_REPRESENTATION_CONTEXT ( 3 ) GLOBAL_UNCERTAINTY_ASSIGNED_CONTEXT ( ( #91 ) ) GLOBAL_UNIT_ASSIGNED_CONTEXT ( ( #21, #110, #7 ) ) REPRESENTATION_CONTEXT ( 'NONE', 'WORKASPACE' ) );
#2 = EDGE_LOOP ( 'NONE', ( #55, #81, #8, #43 ) ) ;
#3 = EDGE_CURVE ( 'NONE', #113, #156, #166, .T. ) ;
#4 = CARTESIAN_POINT ( 'NONE',  ( 12.69999999999999929, 1.555301434917138433E-15, 0.5000000000000000000 ) ) ;
#5 = ORIENTED_EDGE ( 'NONE', *, *, #12, .T. ) ;
#6 = LOCAL_TIME ( 14, 58, 9.000000000000000000, #158 ) ;
#7 =( NAMED_UNIT ( * ) SI_UNIT ( $, .STERADIAN. ) SOLID_ANGLE_UNIT ( ) );
#8 = ORIENTED_EDGE ( 'NONE', *, *, #72, .T. ) ;
#9 = ORIENTED_EDGE ( 'NONE', *, *, #3, .F. ) ;
#10 = APPROVAL_DATE_TIME ( #82, #164 ) ;
#11 = CIRCLE ( 'NONE', #98, 12.69999999999999929 ) ;
#12 = EDGE_CURVE ( 'NONE', #44, #156, #14, .T. ) ;
#13 = DATE_AND_TIME ( #59, #6 ) ;
#14 = CIRCLE ( 'NONE', #128, 12.69999999999999929 ) ;
#15 = DIRECTION ( 'NONE',  ( 1.000000000000000000, 0.000000000000000000, 0.000000000000000000 ) ) ;
#16 = CC_DESIGN_DATE_AND_TIME_ASSIGNMENT ( #170, #135, ( #90 ) ) ;
#17 = CARTESIAN_POINT ( 'NONE',  ( 0.000000000000000000, 0.000000000000000000, -0.5000000000000000000 ) ) ;
#18 = LOCAL_TIME ( 14, 58, 9.000000000000000000, #89 ) ;
#19 = CC_DESIGN_PERSON_AND_ORGANIZATION_ASSIGNMENT ( #149, #150, ( #48 ) ) ;
#20 = APPROVAL_STATUS ( 'not_yet_approved' ) ;
#21 =( LENGTH_UNIT ( ) NAMED_UNIT ( * ) SI_UNIT ( .MILLI., .METRE. ) );
#22 = CIRCLE ( 'NONE', #169, 12.69999999999999929 ) ;
#23 = PRODUCT_DEFINITION_FORMATION_WITH_SPECIFIED_SOURCE ( 'ANY', '', #27, .NOT_KNOWN. ) ;
#24 = PERSON_AND_ORGANIZATION_ROLE ( 'design_owner' ) ;
#25 = PERSON_AND_ORGANIZATION_ROLE ( 'creator' ) ;
#26 = DIRECTION ( 'NONE',  ( 0.000000000000000000, 0.000000000000000000, 1.000000000000000000 ) ) ;
#27 = PRODUCT ( '7279-E0W', '7279-E0W', '', ( #97 ) ) ;
#28 = DATE_AND_TIME ( #67, #61 ) ;
#29 = ADVANCED_FACE ( 'NONE', ( #107 ), #35, .T. ) ;
#30 = CALENDAR_DATE ( 2020, 9, 10 ) ;
#31 = ADVANCED_FACE ( 'NONE', ( #171 ), #104, .T. ) ;
#32 = ORGANIZATION ( 'UNSPECIFIED', 'UNSPECIFIED', '' ) ;
#33 = APPROVAL ( #20, 'UNSPECIFIED' ) ;
#34 = ADVANCED_BREP_SHAPE_REPRESENTATION ( '7279-E0W', ( #95, #105 ), #1 ) ;
#35 = PLANE ( 'NONE',  #136 ) ;
#36 = CARTESIAN_POINT ( 'NONE',  ( 0.000000000000000000, 0.000000000000000000, 0.5000000000000000000 ) ) ;
#37 = CARTESIAN_POINT ( 'NONE',  ( 0.000000000000000000, 0.000000000000000000, 0.5000000000000000000 ) ) ;
#38 = APPLICATION_CONTEXT ( 'configuration controlled 3d designs of mechanical parts and assemblies' ) ;
#39 = PERSON_AND_ORGANIZATION_ROLE ( 'creator' ) ;
#40 = ORIENTED_EDGE ( 'NONE', *, *, #142, .T. ) ;
#41 = CC_DESIGN_PERSON_AND_ORGANIZATION_ASSIGNMENT ( #85, #39, ( #23 ) ) ;
#42 = APPROVAL_PERSON_ORGANIZATION ( #127, #160, #151 ) ;
#43 = ORIENTED_EDGE ( 'NONE', *, *, #84, .F. ) ;
#44 = VERTEX_POINT ( 'NONE', #168 ) ;
#45 = ORIENTED_EDGE ( 'NONE', *, *, #72, .F. ) ;
#46 = COORDINATED_UNIVERSAL_TIME_OFFSET ( 5, 0, .BEHIND. ) ;
#47 = CARTESIAN_POINT ( 'NONE',  ( 0.000000000000000000, 0.000000000000000000, 0.5000000000000000000 ) ) ;
#48 = SECURITY_CLASSIFICATION ( '', '', #137 ) ;
#49 = CARTESIAN_POINT ( 'NONE',  ( 0.000000000000000000, 0.000000000000000000, -0.5000000000000000000 ) ) ;
#50 = CARTESIAN_POINT ( 'NONE',  ( 0.000000000000000000, 0.000000000000000000, 0.5000000000000000000 ) ) ;
#51 = CC_DESIGN_PERSON_AND_ORGANIZATION_ASSIGNMENT ( #129, #25, ( #90 ) ) ;
#52 = CARTESIAN_POINT ( 'NONE',  ( -12.69999999999999929, 0.000000000000000000, 0.5000000000000000000 ) ) ;
#53 = CALENDAR_DATE ( 2020, 9, 10 ) ;
#54 = APPROVAL_ROLE ( '' ) ;
#55 = ORIENTED_EDGE ( 'NONE', *, *, #142, .F. ) ;
#56 = COORDINATED_UNIVERSAL_TIME_OFFSET ( 5, 0, .BEHIND. ) ;
#57 = DIRECTION ( 'NONE',  ( -1.000000000000000000, 0.000000000000000000, 0.000000000000000000 ) ) ;
#58 = VECTOR ( 'NONE', #66, 1000.000000000000000 ) ;
#59 = CALENDAR_DATE ( 2020, 9, 10 ) ;
#60 = ADVANCED_FACE ( 'NONE', ( #112 ), #130, .F. ) ;
#61 = LOCAL_TIME ( 14, 58, 9.000000000000000000, #56 ) ;
#62 = PRODUCT_RELATED_PRODUCT_CATEGORY ( 'detail', '', ( #27 ) ) ;
#63 = COORDINATED_UNIVERSAL_TIME_OFFSET ( 5, 0, .BEHIND. ) ;
#64 = CLOSED_SHELL ( 'NONE', ( #31, #152, #29, #60 ) ) ;
#65 = CARTESIAN_POINT ( 'NONE',  ( 0.000000000000000000, 0.000000000000000000, -0.5000000000000000000 ) ) ;
#66 = DIRECTION ( 'NONE',  ( -0.000000000000000000, -0.000000000000000000, -1.000000000000000000 ) ) ;
#67 = CALENDAR_DATE ( 2020, 9, 10 ) ;
#68 = CC_DESIGN_PERSON_AND_ORGANIZATION_ASSIGNMENT ( #153, #24, ( #27 ) ) ;
#69 = APPROVAL_STATUS ( 'not_yet_approved' ) ;
#70 = CC_DESIGN_SECURITY_CLASSIFICATION ( #48, ( #23 ) ) ;
#71 = LINE ( 'NONE', #78, #58 ) ;
#72 = EDGE_CURVE ( 'NONE', #156, #44, #22, .T. ) ;
#73 = AXIS2_PLACEMENT_3D ( 'NONE', #37, #26, #161 ) ;
#74 = DIRECTION ( 'NONE',  ( 1.000000000000000000, 0.000000000000000000, 0.000000000000000000 ) ) ;
#75 = DIRECTION ( 'NONE',  ( -1.000000000000000000, 0.000000000000000000, 0.000000000000000000 ) ) ;
#76 = DIRECTION ( 'NONE',  ( 0.000000000000000000, 0.000000000000000000, 1.000000000000000000 ) ) ;
#77 = PERSON ( 'UNSPECIFIED', 'UNSPECIFIED', 'UNSPECIFIED', ('UNSPECIFIED'), ('UNSPECIFIED'), ('UNSPECIFIED') ) ;
#78 = CARTESIAN_POINT ( 'NONE',  ( -12.69999999999999929, 0.000000000000000000, 0.5000000000000000000 ) ) ;
#79 = DIRECTION ( 'NONE',  ( 1.000000000000000000, 0.000000000000000000, 0.000000000000000000 ) ) ;
#80 = DIRECTION ( 'NONE',  ( -0.000000000000000000, -0.000000000000000000, -1.000000000000000000 ) ) ;
#81 = ORIENTED_EDGE ( 'NONE', *, *, #3, .T. ) ;
#82 = DATE_AND_TIME ( #53, #18 ) ;
#83 = ORIENTED_EDGE ( 'NONE', *, *, #12, .F. ) ;
#84 = EDGE_CURVE ( 'NONE', #117, #44, #71, .T. ) ;
#85 = PERSON_AND_ORGANIZATION ( #77, #32 ) ;
#86 = AXIS2_PLACEMENT_3D ( 'NONE', #47, #148, #75 ) ;
#87 = EDGE_LOOP ( 'NONE', ( #9, #146, #111, #5 ) ) ;
#88 = APPROVAL_DATE_TIME ( #124, #160 ) ;
#89 = COORDINATED_UNIVERSAL_TIME_OFFSET ( 5, 0, .BEHIND. ) ;
#90 = PRODUCT_DEFINITION ( 'UNKNOWN', '', #23, #141 ) ;
#91 = UNCERTAINTY_MEASURE_WITH_UNIT (LENGTH_MEASURE( 1.000000000000000082E-05 ), #21, 'distance_accuracy_value', 'NONE');
#92 = AXIS2_PLACEMENT_3D ( 'NONE', #173, #80, #57 ) ;
#93 = EDGE_LOOP ( 'NONE', ( #83, #45 ) ) ;
#94 = CC_DESIGN_APPROVAL ( #33, ( #23 ) ) ;
#95 = MANIFOLD_SOLID_BREP ( '7279-001-1-solid1', #64 ) ;
#96 = APPROVAL_PERSON_ORGANIZATION ( #140, #33, #120 ) ;
#97 = MECHANICAL_CONTEXT ( 'NONE', #125, 'mechanical' ) ;
#98 = AXIS2_PLACEMENT_3D ( 'NONE', #36, #144, #74 ) ;
#99 = APPLICATION_PROTOCOL_DEFINITION ( 'international standard', 'config_control_design', 1994, #38 ) ;
#100 = PERSON_AND_ORGANIZATION_ROLE ( 'design_supplier' ) ;
#101 = LOCAL_TIME ( 14, 58, 9.000000000000000000, #46 ) ;
#102 = CC_DESIGN_APPROVAL ( #164, ( #48 ) ) ;
#103 = EDGE_CURVE ( 'NONE', #117, #113, #11, .T. ) ;
#104 = CYLINDRICAL_SURFACE ( 'NONE', #86, 12.69999999999999929 ) ;
#105 = AXIS2_PLACEMENT_3D ( 'NONE', #109, #174, #122 ) ;
#106 = DIRECTION ( 'NONE',  ( 1.000000000000000000, 0.000000000000000000, -0.000000000000000000 ) ) ;
#107 = FACE_OUTER_BOUND ( 'NONE', #123, .T. ) ;
#108 = CALENDAR_DATE ( 2020, 9, 10 ) ;
#109 = CARTESIAN_POINT ( 'NONE',  ( 0.000000000000000000, 0.000000000000000000, 0.000000000000000000 ) ) ;
#110 =( NAMED_UNIT ( * ) PLANE_ANGLE_UNIT ( ) SI_UNIT ( $, .RADIAN. ) );
#111 = ORIENTED_EDGE ( 'NONE', *, *, #84, .T. ) ;
#112 = FACE_OUTER_BOUND ( 'NONE', #93, .T. ) ;
#113 = VERTEX_POINT ( 'NONE', #133 ) ;
#114 = PERSON_AND_ORGANIZATION ( #77, #32 ) ;
#115 = CC_DESIGN_APPROVAL ( #160, ( #90 ) ) ;
#116 = APPROVAL_DATE_TIME ( #13, #33 ) ;
#117 = VERTEX_POINT ( 'NONE', #52 ) ;
#118 = SHAPE_DEFINITION_REPRESENTATION ( #134, #34 ) ;
#119 = DIRECTION ( 'NONE',  ( 0.000000000000000000, 0.000000000000000000, 1.000000000000000000 ) ) ;
#120 = APPROVAL_ROLE ( '' ) ;
#121 = APPLICATION_PROTOCOL_DEFINITION ( 'international standard', 'config_control_design', 1994, #125 ) ;
#122 = DIRECTION ( 'NONE',  ( 1.000000000000000000, 0.000000000000000000, 0.000000000000000000 ) ) ;
#123 = EDGE_LOOP ( 'NONE', ( #162, #40 ) ) ;
#124 = DATE_AND_TIME ( #30, #101 ) ;
#125 = APPLICATION_CONTEXT ( 'configuration controlled 3d designs of mechanical parts and assemblies' ) ;
#126 = PERSON_AND_ORGANIZATION ( #77, #32 ) ;
#127 = PERSON_AND_ORGANIZATION ( #77, #32 ) ;
#128 = AXIS2_PLACEMENT_3D ( 'NONE', #49, #76, #15 ) ;
#129 = PERSON_AND_ORGANIZATION ( #77, #32 ) ;
#130 = PLANE ( 'NONE',  #154 ) ;
#131 = DIRECTION ( 'NONE',  ( -0.000000000000000000, -0.000000000000000000, -1.000000000000000000 ) ) ;
#132 = FACE_OUTER_BOUND ( 'NONE', #87, .T. ) ;
#133 = CARTESIAN_POINT ( 'NONE',  ( 12.69999999999999929, 1.555301434917138433E-15, 0.5000000000000000000 ) ) ;
#134 = PRODUCT_DEFINITION_SHAPE ( 'NONE', 'NONE',  #90 ) ;
#135 = DATE_TIME_ROLE ( 'creation_date' ) ;
#136 = AXIS2_PLACEMENT_3D ( 'NONE', #50, #147, #106 ) ;
#137 = SECURITY_CLASSIFICATION_LEVEL ( 'unclassified' ) ;
#138 = DATE_TIME_ROLE ( 'classification_date' ) ;
#139 = APPROVAL_STATUS ( 'not_yet_approved' ) ;
#140 = PERSON_AND_ORGANIZATION ( #77, #32 ) ;
#141 = DESIGN_CONTEXT ( 'detailed design', #38, 'design' ) ;
#142 = EDGE_CURVE ( 'NONE', #113, #117, #143, .T. ) ;
#143 = CIRCLE ( 'NONE', #73, 12.69999999999999929 ) ;
#144 = DIRECTION ( 'NONE',  ( 0.000000000000000000, 0.000000000000000000, 1.000000000000000000 ) ) ;
#145 = CC_DESIGN_PERSON_AND_ORGANIZATION_ASSIGNMENT ( #126, #100, ( #23 ) ) ;
#146 = ORIENTED_EDGE ( 'NONE', *, *, #103, .F. ) ;
#147 = DIRECTION ( 'NONE',  ( 0.000000000000000000, 0.000000000000000000, 1.000000000000000000 ) ) ;
#148 = DIRECTION ( 'NONE',  ( -0.000000000000000000, -0.000000000000000000, -1.000000000000000000 ) ) ;
#149 = PERSON_AND_ORGANIZATION ( #77, #32 ) ;
#150 = PERSON_AND_ORGANIZATION_ROLE ( 'classification_officer' ) ;
#151 = APPROVAL_ROLE ( '' ) ;
#152 = ADVANCED_FACE ( 'NONE', ( #132 ), #155, .T. ) ;
#153 = PERSON_AND_ORGANIZATION ( #77, #32 ) ;
#154 = AXIS2_PLACEMENT_3D ( 'NONE', #17, #159, #157 ) ;
#155 = CYLINDRICAL_SURFACE ( 'NONE', #92, 12.69999999999999929 ) ;
#156 = VERTEX_POINT ( 'NONE', #172 ) ;
#157 = DIRECTION ( 'NONE',  ( 1.000000000000000000, 0.000000000000000000, -0.000000000000000000 ) ) ;
#158 = COORDINATED_UNIVERSAL_TIME_OFFSET ( 5, 0, .BEHIND. ) ;
#159 = DIRECTION ( 'NONE',  ( 0.000000000000000000, 0.000000000000000000, 1.000000000000000000 ) ) ;
#160 = APPROVAL ( #139, 'UNSPECIFIED' ) ;
#161 = DIRECTION ( 'NONE',  ( 1.000000000000000000, 0.000000000000000000, 0.000000000000000000 ) ) ;
#162 = ORIENTED_EDGE ( 'NONE', *, *, #103, .T. ) ;
#163 = APPROVAL_PERSON_ORGANIZATION ( #114, #164, #54 ) ;
#164 = APPROVAL ( #69, 'UNSPECIFIED' ) ;
#165 = LOCAL_TIME ( 14, 58, 9.000000000000000000, #63 ) ;
#166 = LINE ( 'NONE', #4, #175 ) ;
#167 = CC_DESIGN_DATE_AND_TIME_ASSIGNMENT ( #28, #138, ( #48 ) ) ;
#168 = CARTESIAN_POINT ( 'NONE',  ( -12.69999999999999929, 0.000000000000000000, -0.5000000000000000000 ) ) ;
#169 = AXIS2_PLACEMENT_3D ( 'NONE', #65, #119, #79 ) ;
#170 = DATE_AND_TIME ( #108, #165 ) ;
#171 = FACE_OUTER_BOUND ( 'NONE', #2, .T. ) ;
#172 = CARTESIAN_POINT ( 'NONE',  ( 12.69999999999999929, 1.555301434917138433E-15, -0.5000000000000000000 ) ) ;
#173 = CARTESIAN_POINT ( 'NONE',  ( 0.000000000000000000, 0.000000000000000000, 0.5000000000000000000 ) ) ;
#174 = DIRECTION ( 'NONE',  ( 0.000000000000000000, 0.000000000000000000, 1.000000000000000000 ) ) ;
#175 = VECTOR ( 'NONE', #131, 1000.000000000000000 ) ;
ENDSEC;
END-ISO-10303-21;
