ISO-10303-21;
HEADER;
FILE_DESCRIPTION (( 'STEP AP203' ),
    '1' );
FILE_NAME ('Web Model 20539_20539.step',
    '2022-06-06T20:43:30',
    ( 'WC' ),
    ( 'Windows Central' ),
    'SwSTEP 2.0',
    'SolidWorks 2021',
    '' );
FILE_SCHEMA (( 'CONFIG_CONTROL_DESIGN' ));
ENDSEC;

DATA;
#1 = APPROVAL_ROLE ( '' ) ;
#2 = PERSON_AND_ORGANIZATION ( #35, #227 ) ;
#3 = EDGE_CURVE ( 'NONE', #159, #52, #37, .T. ) ;
#4 = CARTESIAN_POINT ( 'NONE',  ( 5.000000000000000000, -5.000000000000000000, 0.000000000000000000 ) ) ;
#5 = AXIS2_PLACEMENT_3D ( 'NONE', #233, #231, #53 ) ;
#6 = CARTESIAN_POINT ( 'NONE',  ( 5.000000000000000000, -5.000000000000000000, 1.000000000000000000 ) ) ;
#7 = VECTOR ( 'NONE', #42, 1000.000000000000000 ) ;
#8 = APPLICATION_CONTEXT ( 'configuration controlled 3d designs of mechanical parts and assemblies' ) ;
#9 = PRODUCT_DEFINITION ( 'UNKNOWN', '', #85, #103 ) ;
#10 = ORIENTED_EDGE ( 'NONE', *, *, #3, .F. ) ;
#11 = DATE_AND_TIME ( #105, #207 ) ;
#12 = CARTESIAN_POINT ( 'NONE',  ( -5.000000000000000000, -5.000000000000000000, 1.000000000000000000 ) ) ;
#13 = VECTOR ( 'NONE', #217, 1000.000000000000000 ) ;
#14 = EDGE_LOOP ( 'NONE', ( #106, #125, #51, #77 ) ) ;
#15 = PERSON_AND_ORGANIZATION ( #35, #227 ) ;
#16 = APPROVAL_PERSON_ORGANIZATION ( #133, #34, #109 ) ;
#17 = CARTESIAN_POINT ( 'NONE',  ( -5.000000000000000000, 5.000000000000000000, 0.000000000000000000 ) ) ;
#18 = ADVANCED_FACE ( 'NONE', ( #193 ), #218, .F. ) ;
#19 = CC_DESIGN_PERSON_AND_ORGANIZATION_ASSIGNMENT ( #32, #135, ( #85 ) ) ;
#20 = ORIENTED_EDGE ( 'NONE', *, *, #200, .T. ) ;
#21 =( LENGTH_UNIT ( ) NAMED_UNIT ( * ) SI_UNIT ( .MILLI., .METRE. ) );
#22 = MANIFOLD_SOLID_BREP ( 'Boss-Extrude1', #70 ) ;
#23 =( GEOMETRIC_REPRESENTATION_CONTEXT ( 3 ) GLOBAL_UNCERTAINTY_ASSIGNED_CONTEXT ( ( #69 ) ) GLOBAL_UNIT_ASSIGNED_CONTEXT ( ( #21, #96, #150 ) ) REPRESENTATION_CONTEXT ( 'NONE', 'WORKASPACE' ) );
#24 = AXIS2_PLACEMENT_3D ( 'NONE', #216, #38, #108 ) ;
#25 = DIRECTION ( 'NONE',  ( 0.000000000000000000, -0.000000000000000000, -1.000000000000000000 ) ) ;
#26 = CALENDAR_DATE ( 2022, 6, 6 ) ;
#27 = APPLICATION_CONTEXT ( 'configuration controlled 3d designs of mechanical parts and assemblies' ) ;
#28 = DIRECTION ( 'NONE',  ( 0.000000000000000000, 0.000000000000000000, 1.000000000000000000 ) ) ;
#29 = SHAPE_DEFINITION_REPRESENTATION ( #101, #203 ) ;
#30 = ADVANCED_FACE ( 'NONE', ( #40 ), #236, .F. ) ;
#31 = LINE ( 'NONE', #4, #122 ) ;
#32 = PERSON_AND_ORGANIZATION ( #35, #227 ) ;
#33 = VECTOR ( 'NONE', #173, 1000.000000000000000 ) ;
#34 = APPROVAL ( #39, 'UNSPECIFIED' ) ;
#35 = PERSON ( 'UNSPECIFIED', 'UNSPECIFIED', 'UNSPECIFIED', ('UNSPECIFIED'), ('UNSPECIFIED'), ('UNSPECIFIED') ) ;
#36 = ORIENTED_EDGE ( 'NONE', *, *, #138, .F. ) ;
#37 = LINE ( 'NONE', #157, #115 ) ;
#38 = DIRECTION ( 'NONE',  ( 0.000000000000000000, 1.000000000000000000, 0.000000000000000000 ) ) ;
#39 = APPROVAL_STATUS ( 'not_yet_approved' ) ;
#40 = FACE_OUTER_BOUND ( 'NONE', #14, .T. ) ;
#41 = DIRECTION ( 'NONE',  ( 1.000000000000000000, 0.000000000000000000, 0.000000000000000000 ) ) ;
#42 = DIRECTION ( 'NONE',  ( -0.000000000000000000, -0.000000000000000000, -1.000000000000000000 ) ) ;
#43 = FACE_OUTER_BOUND ( 'NONE', #232, .T. ) ;
#44 = LINE ( 'NONE', #206, #155 ) ;
#45 = CARTESIAN_POINT ( 'NONE',  ( 0.000000000000000000, 0.000000000000000000, 1.000000000000000000 ) ) ;
#46 = EDGE_CURVE ( 'NONE', #214, #165, #142, .T. ) ;
#47 = LINE ( 'NONE', #117, #188 ) ;
#48 = CC_DESIGN_PERSON_AND_ORGANIZATION_ASSIGNMENT ( #116, #63, ( #118 ) ) ;
#49 = CC_DESIGN_PERSON_AND_ORGANIZATION_ASSIGNMENT ( #225, #166, ( #85 ) ) ;
#50 = VECTOR ( 'NONE', #93, 1000.000000000000000 ) ;
#51 = ORIENTED_EDGE ( 'NONE', *, *, #129, .F. ) ;
#52 = VERTEX_POINT ( 'NONE', #57 ) ;
#53 = DIRECTION ( 'NONE',  ( 0.000000000000000000, 0.000000000000000000, -1.000000000000000000 ) ) ;
#54 = APPROVAL ( #119, 'UNSPECIFIED' ) ;
#55 = ORIENTED_EDGE ( 'NONE', *, *, #129, .T. ) ;
#56 = CARTESIAN_POINT ( 'NONE',  ( 0.000000000000000000, 0.000000000000000000, 0.000000000000000000 ) ) ;
#57 = CARTESIAN_POINT ( 'NONE',  ( -5.000000000000000000, 5.000000000000000000, 1.000000000000000000 ) ) ;
#58 = CARTESIAN_POINT ( 'NONE',  ( -5.000000000000000000, -5.000000000000000000, 0.000000000000000000 ) ) ;
#59 = LINE ( 'NONE', #132, #7 ) ;
#60 = DIRECTION ( 'NONE',  ( 1.000000000000000000, 0.000000000000000000, 0.000000000000000000 ) ) ;
#61 = VECTOR ( 'NONE', #64, 1000.000000000000000 ) ;
#62 = DIRECTION ( 'NONE',  ( -1.000000000000000000, 0.000000000000000000, -0.000000000000000000 ) ) ;
#63 = PERSON_AND_ORGANIZATION_ROLE ( 'classification_officer' ) ;
#64 = DIRECTION ( 'NONE',  ( -0.000000000000000000, -0.000000000000000000, -1.000000000000000000 ) ) ;
#65 = CC_DESIGN_APPROVAL ( #112, ( #85 ) ) ;
#66 = CALENDAR_DATE ( 2022, 6, 6 ) ;
#67 = LINE ( 'NONE', #237, #152 ) ;
#68 = PRODUCT_RELATED_PRODUCT_CATEGORY ( 'detail', '', ( #205 ) ) ;
#69 = UNCERTAINTY_MEASURE_WITH_UNIT (LENGTH_MEASURE( 1.000000000000000082E-05 ), #21, 'distance_accuracy_value', 'NONE');
#70 = CLOSED_SHELL ( 'NONE', ( #168, #18, #208, #30, #171, #226 ) ) ;
#71 = ORIENTED_EDGE ( 'NONE', *, *, #87, .T. ) ;
#72 = LOCAL_TIME ( 16, 43, 30.00000000000000000, #186 ) ;
#73 = CARTESIAN_POINT ( 'NONE',  ( -5.000000000000000000, 5.000000000000000000, 1.000000000000000000 ) ) ;
#74 = ORIENTED_EDGE ( 'NONE', *, *, #46, .F. ) ;
#75 = COORDINATED_UNIVERSAL_TIME_OFFSET ( 5, 0, .BEHIND. ) ;
#76 = CC_DESIGN_PERSON_AND_ORGANIZATION_ASSIGNMENT ( #15, #92, ( #205 ) ) ;
#77 = ORIENTED_EDGE ( 'NONE', *, *, #120, .T. ) ;
#78 = CC_DESIGN_APPROVAL ( #34, ( #9 ) ) ;
#79 = FACE_OUTER_BOUND ( 'NONE', #130, .T. ) ;
#80 = CALENDAR_DATE ( 2022, 6, 6 ) ;
#81 = FACE_OUTER_BOUND ( 'NONE', #199, .T. ) ;
#82 = PLANE ( 'NONE',  #90 ) ;
#83 = PLANE ( 'NONE',  #223 ) ;
#84 = CARTESIAN_POINT ( 'NONE',  ( 5.000000000000000000, 5.000000000000000000, 1.000000000000000000 ) ) ;
#85 = PRODUCT_DEFINITION_FORMATION_WITH_SPECIFIED_SOURCE ( 'ANY', '', #205, .NOT_KNOWN. ) ;
#86 = CARTESIAN_POINT ( 'NONE',  ( 5.000000000000000000, 5.000000000000000000, 1.000000000000000000 ) ) ;
#87 = EDGE_CURVE ( 'NONE', #165, #91, #110, .T. ) ;
#88 = ORIENTED_EDGE ( 'NONE', *, *, #197, .T. ) ;
#89 = CALENDAR_DATE ( 2022, 6, 6 ) ;
#90 = AXIS2_PLACEMENT_3D ( 'NONE', #224, #137, #28 ) ;
#91 = VERTEX_POINT ( 'NONE', #220 ) ;
#92 = PERSON_AND_ORGANIZATION_ROLE ( 'design_owner' ) ;
#93 = DIRECTION ( 'NONE',  ( -1.000000000000000000, -0.000000000000000000, -0.000000000000000000 ) ) ;
#94 = APPROVAL_DATE_TIME ( #178, #34 ) ;
#95 = EDGE_CURVE ( 'NONE', #52, #165, #59, .T. ) ;
#96 =( NAMED_UNIT ( * ) PLANE_ANGLE_UNIT ( ) SI_UNIT ( $, .RADIAN. ) );
#97 = AXIS2_PLACEMENT_3D ( 'NONE', #128, #192, #126 ) ;
#98 = DATE_AND_TIME ( #26, #172 ) ;
#99 = DIRECTION ( 'NONE',  ( 0.000000000000000000, 1.000000000000000000, 0.000000000000000000 ) ) ;
#100 = CC_DESIGN_DATE_AND_TIME_ASSIGNMENT ( #98, #163, ( #9 ) ) ;
#101 = PRODUCT_DEFINITION_SHAPE ( 'NONE', 'NONE',  #9 ) ;
#102 = AXIS2_PLACEMENT_3D ( 'NONE', #73, #145, #25 ) ;
#103 = DESIGN_CONTEXT ( 'detailed design', #27, 'design' ) ;
#104 = LINE ( 'NONE', #211, #33 ) ;
#105 = CALENDAR_DATE ( 2022, 6, 6 ) ;
#106 = ORIENTED_EDGE ( 'NONE', *, *, #234, .T. ) ;
#107 = DIRECTION ( 'NONE',  ( 0.000000000000000000, 0.000000000000000000, 1.000000000000000000 ) ) ;
#108 = DIRECTION ( 'NONE',  ( 0.000000000000000000, -0.000000000000000000, 1.000000000000000000 ) ) ;
#109 = APPROVAL_ROLE ( '' ) ;
#110 = LINE ( 'NONE', #190, #210 ) ;
#111 = PLANE ( 'NONE',  #97 ) ;
#112 = APPROVAL ( #202, 'UNSPECIFIED' ) ;
#113 = ORIENTED_EDGE ( 'NONE', *, *, #200, .F. ) ;
#114 = COORDINATED_UNIVERSAL_TIME_OFFSET ( 5, 0, .BEHIND. ) ;
#115 = VECTOR ( 'NONE', #149, 1000.000000000000000 ) ;
#116 = PERSON_AND_ORGANIZATION ( #35, #227 ) ;
#117 = CARTESIAN_POINT ( 'NONE',  ( 5.000000000000000000, -5.000000000000000000, 1.000000000000000000 ) ) ;
#118 = SECURITY_CLASSIFICATION ( '', '', #183 ) ;
#119 = APPROVAL_STATUS ( 'not_yet_approved' ) ;
#120 = EDGE_CURVE ( 'NONE', #177, #91, #104, .T. ) ;
#121 = DIRECTION ( 'NONE',  ( 0.000000000000000000, 0.000000000000000000, -1.000000000000000000 ) ) ;
#122 = VECTOR ( 'NONE', #99, 1000.000000000000000 ) ;
#123 = LINE ( 'NONE', #86, #61 ) ;
#124 = ORIENTED_EDGE ( 'NONE', *, *, #146, .T. ) ;
#125 = ORIENTED_EDGE ( 'NONE', *, *, #146, .F. ) ;
#126 = DIRECTION ( 'NONE',  ( -1.000000000000000000, 0.000000000000000000, -0.000000000000000000 ) ) ;
#127 = ORIENTED_EDGE ( 'NONE', *, *, #185, .T. ) ;
#128 = CARTESIAN_POINT ( 'NONE',  ( 0.000000000000000000, 0.000000000000000000, 0.000000000000000000 ) ) ;
#129 = EDGE_CURVE ( 'NONE', #177, #154, #44, .T. ) ;
#130 = EDGE_LOOP ( 'NONE', ( #235, #191, #175, #74 ) ) ;
#131 = PLANE ( 'NONE',  #5 ) ;
#132 = CARTESIAN_POINT ( 'NONE',  ( -5.000000000000000000, 5.000000000000000000, 1.000000000000000000 ) ) ;
#133 = PERSON_AND_ORGANIZATION ( #35, #227 ) ;
#134 = APPROVAL_PERSON_ORGANIZATION ( #2, #54, #1 ) ;
#135 = PERSON_AND_ORGANIZATION_ROLE ( 'creator' ) ;
#136 = CARTESIAN_POINT ( 'NONE',  ( -5.000000000000000000, -5.000000000000000000, 1.000000000000000000 ) ) ;
#137 = DIRECTION ( 'NONE',  ( -1.000000000000000000, 0.000000000000000000, 0.000000000000000000 ) ) ;
#138 = EDGE_CURVE ( 'NONE', #159, #214, #123, .T. ) ;
#139 = DATE_TIME_ROLE ( 'classification_date' ) ;
#140 = DIRECTION ( 'NONE',  ( -0.000000000000000000, -0.000000000000000000, -1.000000000000000000 ) ) ;
#141 = VECTOR ( 'NONE', #60, 1000.000000000000000 ) ;
#142 = LINE ( 'NONE', #17, #50 ) ;
#143 = ORIENTED_EDGE ( 'NONE', *, *, #95, .F. ) ;
#144 = LINE ( 'NONE', #12, #13 ) ;
#145 = DIRECTION ( 'NONE',  ( 0.000000000000000000, -1.000000000000000000, 0.000000000000000000 ) ) ;
#146 = EDGE_CURVE ( 'NONE', #154, #201, #47, .T. ) ;
#147 = ORIENTED_EDGE ( 'NONE', *, *, #120, .F. ) ;
#148 = COORDINATED_UNIVERSAL_TIME_OFFSET ( 5, 0, .BEHIND. ) ;
#149 = DIRECTION ( 'NONE',  ( -1.000000000000000000, -0.000000000000000000, -0.000000000000000000 ) ) ;
#150 =( NAMED_UNIT ( * ) SI_UNIT ( $, .STERADIAN. ) SOLID_ANGLE_UNIT ( ) );
#151 = DATE_AND_TIME ( #66, #189 ) ;
#152 = VECTOR ( 'NONE', #198, 1000.000000000000000 ) ;
#153 = LOCAL_TIME ( 16, 43, 30.00000000000000000, #114 ) ;
#154 = VERTEX_POINT ( 'NONE', #6 ) ;
#155 = VECTOR ( 'NONE', #169, 1000.000000000000000 ) ;
#156 = FACE_OUTER_BOUND ( 'NONE', #228, .T. ) ;
#157 = CARTESIAN_POINT ( 'NONE',  ( -5.000000000000000000, 5.000000000000000000, 1.000000000000000000 ) ) ;
#158 = APPLICATION_PROTOCOL_DEFINITION ( 'international standard', 'config_control_design', 1994, #27 ) ;
#159 = VERTEX_POINT ( 'NONE', #84 ) ;
#160 = PERSON_AND_ORGANIZATION_ROLE ( 'creator' ) ;
#161 = ORIENTED_EDGE ( 'NONE', *, *, #138, .T. ) ;
#162 = ORIENTED_EDGE ( 'NONE', *, *, #197, .F. ) ;
#163 = DATE_TIME_ROLE ( 'creation_date' ) ;
#164 = APPROVAL_PERSON_ORGANIZATION ( #222, #112, #229 ) ;
#165 = VERTEX_POINT ( 'NONE', #167 ) ;
#166 = PERSON_AND_ORGANIZATION_ROLE ( 'design_supplier' ) ;
#167 = CARTESIAN_POINT ( 'NONE',  ( -5.000000000000000000, 5.000000000000000000, 0.000000000000000000 ) ) ;
#168 = ADVANCED_FACE ( 'NONE', ( #43 ), #82, .F. ) ;
#169 = DIRECTION ( 'NONE',  ( 1.000000000000000000, 0.000000000000000000, 0.000000000000000000 ) ) ;
#170 = DATE_AND_TIME ( #80, #72 ) ;
#171 = ADVANCED_FACE ( 'NONE', ( #81 ), #83, .F. ) ;
#172 = LOCAL_TIME ( 16, 43, 30.00000000000000000, #148 ) ;
#173 = DIRECTION ( 'NONE',  ( -0.000000000000000000, -0.000000000000000000, -1.000000000000000000 ) ) ;
#174 = CARTESIAN_POINT ( 'NONE',  ( 5.000000000000000000, 5.000000000000000000, 0.000000000000000000 ) ) ;
#175 = ORIENTED_EDGE ( 'NONE', *, *, #87, .F. ) ;
#176 = MECHANICAL_CONTEXT ( 'NONE', #8, 'mechanical' ) ;
#177 = VERTEX_POINT ( 'NONE', #136 ) ;
#178 = DATE_AND_TIME ( #89, #153 ) ;
#179 = DIRECTION ( 'NONE',  ( -0.000000000000000000, -1.000000000000000000, -0.000000000000000000 ) ) ;
#180 = LINE ( 'NONE', #58, #141 ) ;
#181 = EDGE_LOOP ( 'NONE', ( #196, #143, #10, #161 ) ) ;
#182 = PERSON_AND_ORGANIZATION ( #35, #227 ) ;
#183 = SECURITY_CLASSIFICATION_LEVEL ( 'unclassified' ) ;
#184 = APPROVAL_DATE_TIME ( #170, #54 ) ;
#185 = EDGE_CURVE ( 'NONE', #201, #214, #31, .T. ) ;
#186 = COORDINATED_UNIVERSAL_TIME_OFFSET ( 5, 0, .BEHIND. ) ;
#187 = COORDINATED_UNIVERSAL_TIME_OFFSET ( 5, 0, .BEHIND. ) ;
#188 = VECTOR ( 'NONE', #140, 1000.000000000000000 ) ;
#189 = LOCAL_TIME ( 16, 43, 30.00000000000000000, #187 ) ;
#190 = CARTESIAN_POINT ( 'NONE',  ( -5.000000000000000000, -5.000000000000000000, 0.000000000000000000 ) ) ;
#191 = ORIENTED_EDGE ( 'NONE', *, *, #234, .F. ) ;
#192 = DIRECTION ( 'NONE',  ( 0.000000000000000000, 0.000000000000000000, -1.000000000000000000 ) ) ;
#193 = FACE_OUTER_BOUND ( 'NONE', #181, .T. ) ;
#194 = CARTESIAN_POINT ( 'NONE',  ( 5.000000000000000000, -5.000000000000000000, 0.000000000000000000 ) ) ;
#195 = AXIS2_PLACEMENT_3D ( 'NONE', #56, #107, #41 ) ;
#196 = ORIENTED_EDGE ( 'NONE', *, *, #46, .T. ) ;
#197 = EDGE_CURVE ( 'NONE', #52, #177, #144, .T. ) ;
#198 = DIRECTION ( 'NONE',  ( 0.000000000000000000, 1.000000000000000000, 0.000000000000000000 ) ) ;
#199 = EDGE_LOOP ( 'NONE', ( #20, #221, #88, #55 ) ) ;
#200 = EDGE_CURVE ( 'NONE', #154, #159, #67, .T. ) ;
#201 = VERTEX_POINT ( 'NONE', #194 ) ;
#202 = APPROVAL_STATUS ( 'not_yet_approved' ) ;
#203 = ADVANCED_BREP_SHAPE_REPRESENTATION ( 'Web Model 20539_20539', ( #22, #195 ), #23 ) ;
#204 = CC_DESIGN_APPROVAL ( #54, ( #118 ) ) ;
#205 = PRODUCT ( 'Web Model 20539_20539', 'Web Model 20539_20539', '', ( #176 ) ) ;
#206 = CARTESIAN_POINT ( 'NONE',  ( -5.000000000000000000, -5.000000000000000000, 1.000000000000000000 ) ) ;
#207 = LOCAL_TIME ( 16, 43, 30.00000000000000000, #75 ) ;
#208 = ADVANCED_FACE ( 'NONE', ( #156 ), #131, .F. ) ;
#209 = CC_DESIGN_DATE_AND_TIME_ASSIGNMENT ( #151, #139, ( #118 ) ) ;
#210 = VECTOR ( 'NONE', #179, 1000.000000000000000 ) ;
#211 = CARTESIAN_POINT ( 'NONE',  ( -5.000000000000000000, -5.000000000000000000, 1.000000000000000000 ) ) ;
#212 = CC_DESIGN_PERSON_AND_ORGANIZATION_ASSIGNMENT ( #182, #160, ( #9 ) ) ;
#213 = CC_DESIGN_SECURITY_CLASSIFICATION ( #118, ( #85 ) ) ;
#214 = VERTEX_POINT ( 'NONE', #174 ) ;
#215 = APPROVAL_DATE_TIME ( #11, #112 ) ;
#216 = CARTESIAN_POINT ( 'NONE',  ( -5.000000000000000000, -5.000000000000000000, 1.000000000000000000 ) ) ;
#217 = DIRECTION ( 'NONE',  ( -0.000000000000000000, -1.000000000000000000, -0.000000000000000000 ) ) ;
#218 = PLANE ( 'NONE',  #102 ) ;
#219 = APPLICATION_PROTOCOL_DEFINITION ( 'international standard', 'config_control_design', 1994, #8 ) ;
#220 = CARTESIAN_POINT ( 'NONE',  ( -5.000000000000000000, -5.000000000000000000, 0.000000000000000000 ) ) ;
#221 = ORIENTED_EDGE ( 'NONE', *, *, #3, .T. ) ;
#222 = PERSON_AND_ORGANIZATION ( #35, #227 ) ;
#223 = AXIS2_PLACEMENT_3D ( 'NONE', #45, #121, #62 ) ;
#224 = CARTESIAN_POINT ( 'NONE',  ( 5.000000000000000000, -5.000000000000000000, 1.000000000000000000 ) ) ;
#225 = PERSON_AND_ORGANIZATION ( #35, #227 ) ;
#226 = ADVANCED_FACE ( 'NONE', ( #79 ), #111, .T. ) ;
#227 = ORGANIZATION ( 'UNSPECIFIED', 'UNSPECIFIED', '' ) ;
#228 = EDGE_LOOP ( 'NONE', ( #71, #147, #162, #230 ) ) ;
#229 = APPROVAL_ROLE ( '' ) ;
#230 = ORIENTED_EDGE ( 'NONE', *, *, #95, .T. ) ;
#231 = DIRECTION ( 'NONE',  ( 1.000000000000000000, 0.000000000000000000, 0.000000000000000000 ) ) ;
#232 = EDGE_LOOP ( 'NONE', ( #127, #36, #113, #124 ) ) ;
#233 = CARTESIAN_POINT ( 'NONE',  ( -5.000000000000000000, -5.000000000000000000, 1.000000000000000000 ) ) ;
#234 = EDGE_CURVE ( 'NONE', #91, #201, #180, .T. ) ;
#235 = ORIENTED_EDGE ( 'NONE', *, *, #185, .F. ) ;
#236 = PLANE ( 'NONE',  #24 ) ;
#237 = CARTESIAN_POINT ( 'NONE',  ( 5.000000000000000000, -5.000000000000000000, 1.000000000000000000 ) ) ;
ENDSEC;
END-ISO-10303-21;
