ISO-10303-21;
HEADER;
FILE_DESCRIPTION (( 'STEP AP203' ),
    '1' );
FILE_NAME ('TTN023916-E0W.STEP',
    '2014-04-22T14:52:09',
    ( 'admin' ),
    ( '' ),
    'SwSTEP 2.0',
    'SolidWorks 2012',
    '' );
FILE_SCHEMA (( 'CONFIG_CONTROL_DESIGN' ));
ENDSEC;

DATA;
#1 = PRODUCT_DEFINITION_SHAPE ( 'NONE', 'NONE',  #210 ) ;
#2 = DESIGN_CONTEXT ( 'detailed design', #77, 'design' ) ;
#3 = CC_DESIGN_APPROVAL ( #171, ( #210 ) ) ;
#4 = CC_DESIGN_PERSON_AND_ORGANIZATION_ASSIGNMENT ( #250, #81, ( #210 ) ) ;
#5 = CC_DESIGN_DATE_AND_TIME_ASSIGNMENT ( #252, #82, ( #210 ) ) ;
#6 = PRODUCT_DEFINITION_FORMATION_WITH_SPECIFIED_SOURCE ( 'ANY', '', #300, .NOT_KNOWN. ) ;
#7 = APPROVAL ( #83, 'UNSPECIFIED' ) ;
#8 = CC_DESIGN_APPROVAL ( #7, ( #6 ) ) ;
#9 = CC_DESIGN_PERSON_AND_ORGANIZATION_ASSIGNMENT ( #245, #85, ( #6 ) ) ;
#10 = CC_DESIGN_PERSON_AND_ORGANIZATION_ASSIGNMENT ( #246, #86, ( #6 ) ) ;
#11 = SECURITY_CLASSIFICATION ( '', '', #87 ) ;
#12 = CC_DESIGN_PERSON_AND_ORGANIZATION_ASSIGNMENT ( #264, #211, ( #11 ) ) ;
#13 = CC_DESIGN_DATE_AND_TIME_ASSIGNMENT ( #218, #212, ( #11 ) ) ;
#14 = APPROVAL ( #213, 'UNSPECIFIED' ) ;
#15 = CC_DESIGN_APPROVAL ( #14, ( #11 ) ) ;
#16 = CC_DESIGN_SECURITY_CLASSIFICATION ( #11, ( #6 ) ) ;
#17 = PRODUCT_RELATED_PRODUCT_CATEGORY ( 'detail', '', ( #300 ) ) ;
#18 = LENGTH_MEASURE_WITH_UNIT ( LENGTH_MEASURE( 0.02539999999999999900 ), #68 );
#19 = LINE ( 'NONE', #41, #25 ) ;
#20 = CIRCLE ( 'NONE', #256, 0.4999999999999997800 ) ;
#21 = CONICAL_SURFACE ( 'NONE', #261, 0.4921259842519665800, 0.7853981633974559400 ) ;
#22 = CIRCLE ( 'NONE', #259, 0.4999999999999997800 ) ;
#23 = VECTOR ( 'NONE', #40, 39.37007874015748100 ) ;
#24 = LINE ( 'NONE', #35, #101 ) ;
#25 = VECTOR ( 'NONE', #42, 39.37007874015748100 ) ;
#26 = SPHERICAL_SURFACE ( 'NONE', #260, 8.228346456692914800 ) ;
#27 = LINE ( 'NONE', #36, #23 ) ;
#28 = CIRCLE ( 'NONE', #235, 0.4921259842519665800 ) ;
#29 = CARTESIAN_POINT ( 'NONE',  ( 0.0000000000000000000, 1.000385035004977600E-016, -0.07086614173227710800 ) ) ;
#30 = DIRECTION ( 'NONE',  ( -0.0000000000000000000, -1.270488994455271100E-014, -1.000000000000000000 ) ) ;
#31 = DIRECTION ( 'NONE',  ( 0.0000000000000000000, 1.000000000000000000, -1.270309317053883000E-014 ) ) ;
#32 = CARTESIAN_POINT ( 'NONE',  ( 0.0000000000000000000, 1.000385035004977600E-016, -0.07086614173227710800 ) ) ;
#33 = DIRECTION ( 'NONE',  ( -0.0000000000000000000, -1.270488994455271100E-014, -1.000000000000000000 ) ) ;
#34 = DIRECTION ( 'NONE',  ( 0.0000000000000000000, 1.000000000000000000, -1.270309317053883000E-014 ) ) ;
#35 = CARTESIAN_POINT ( 'NONE',  ( 6.123233995736763600E-017, 0.4999999999999998300, -0.07086614173228346400 ) ) ;
#36 = CARTESIAN_POINT ( 'NONE',  ( 0.0000000000000000000, -0.4999999999999997200, -0.07086614173227076500 ) ) ;
#37 = CARTESIAN_POINT ( 'NONE',  ( 0.0000000000000000000, 1.813628687964171400E-015, 0.06401028710277820200 ) ) ;
#38 = DIRECTION ( 'NONE',  ( -0.0000000000000000000, -1.270488994455271100E-014, -1.000000000000000000 ) ) ;
#39 = DIRECTION ( 'NONE',  ( 0.0000000000000000000, 1.000000000000000000, -1.269817584415027700E-014 ) ) ;
#40 = DIRECTION ( 'NONE',  ( 0.0000000000000000000, -0.7071067811865178200, 0.7071067811865772200 ) ) ;
#41 = CARTESIAN_POINT ( 'NONE',  ( 6.123233995736764800E-017, -0.4999999999999998300, -0.07874015748031511200 ) ) ;
#42 = DIRECTION ( 'NONE',  ( -0.0000000000000000000, 3.061515884555943100E-016, -1.000000000000000000 ) ) ;
#43 = DIRECTION ( 'NONE',  ( 8.659560562354678900E-017, 0.7071067811865358000, 0.7071067811865592300 ) ) ;
#44 = CARTESIAN_POINT ( 'NONE',  ( 0.0000000000000000000, 0.4999999999999998300, -0.07874015748031480700 ) ) ;
#45 = DIRECTION ( 'NONE',  ( -0.0000000000000000000, 3.061515884555943100E-016, -1.000000000000000000 ) ) ;
#46 = DIRECTION ( 'NONE',  ( 8.659560562354999400E-017, -0.7071067811865618900, -0.7071067811865331400 ) ) ;
#47 = CARTESIAN_POINT ( 'NONE',  ( 0.0000000000000000000, 1.713590184463757700E-015, 0.05613627135474681000 ) ) ;
#48 = DIRECTION ( 'NONE',  ( -0.0000000000000000000, -1.270488994455271100E-014, -1.000000000000000000 ) ) ;
#49 = DIRECTION ( 'NONE',  ( 0.0000000000000000000, 1.000000000000000000, -1.270309317053887300E-014 ) ) ;
#50 = CARTESIAN_POINT ( 'NONE',  ( 6.026805113914116400E-017, -0.4921259842519647400, 0.06401028710278446100 ) ) ;
#51 = CARTESIAN_POINT ( 'NONE',  ( 0.0000000000000000000, 9.930882549619424400E-016, -8.149606299212592800 ) ) ;
#52 = DIRECTION ( 'NONE',  ( -1.000000000000000000, 0.0000000000000000000, 0.0000000000000000000 ) ) ;
#53 = DIRECTION ( 'NONE',  ( 0.0000000000000000000, 0.0000000000000000000, 1.000000000000000000 ) ) ;
#54 = CARTESIAN_POINT ( 'NONE',  ( 0.0000000000000000000, 9.930882549619424400E-016, -8.149606299212592800 ) ) ;
#55 = DIRECTION ( 'NONE',  ( 1.000000000000000000, 1.224646799147353200E-016, 3.749275628560213600E-032 ) ) ;
#56 = DIRECTION ( 'NONE',  ( -1.224646799147353200E-016, 1.000000000000000000, 0.0000000000000000000 ) ) ;
#57 = CARTESIAN_POINT ( 'NONE',  ( 0.0000000000000000000, 7.748382074351547600E-029, -0.07874015748030902000 ) ) ;
#58 = DIRECTION ( 'NONE',  ( -0.0000000000000000000, -1.270488994455271100E-014, -1.000000000000000000 ) ) ;
#59 = DIRECTION ( 'NONE',  ( 0.0000000000000000000, 1.000000000000000000, -1.269817584415023100E-014 ) ) ;
#60 = DIRECTION ( 'NONE',  ( 0.0000000000000000000, 0.0000000000000000000, 1.000000000000000000 ) ) ;
#61 = CARTESIAN_POINT ( 'NONE',  ( 0.0000000000000000000, 1.813628687964171400E-015, 0.06401028710277820200 ) ) ;
#62 = DIRECTION ( 'NONE',  ( -0.0000000000000000000, -1.270488994455271100E-014, -1.000000000000000000 ) ) ;
#63 = DIRECTION ( 'NONE',  ( 0.0000000000000000000, 1.000000000000000000, -1.269817584415027700E-014 ) ) ;
#64 = CARTESIAN_POINT ( 'NONE',  ( 0.0000000000000000000, 0.0000000000000000000, 0.0000000000000000000 ) ) ;
#65 = CARTESIAN_POINT ( 'NONE',  ( 0.0000000000000000000, 1.713590184463757700E-015, 0.05613627135474681000 ) ) ;
#66 = DIRECTION ( 'NONE',  ( -0.0000000000000000000, -1.270488994455271100E-014, -1.000000000000000000 ) ) ;
#67 = DIRECTION ( 'NONE',  ( 0.0000000000000000000, 1.000000000000000000, -1.270309317053887300E-014 ) ) ;
#68 =( LENGTH_UNIT ( ) NAMED_UNIT ( * ) SI_UNIT ( $, .METRE. ) );
#69 =( CONVERSION_BASED_UNIT ( 'INCH', #18 ) LENGTH_UNIT ( ) NAMED_UNIT ( #276 ) );
#70 =( NAMED_UNIT ( * ) PLANE_ANGLE_UNIT ( ) SI_UNIT ( $, .RADIAN. ) );
#71 =( NAMED_UNIT ( * ) SI_UNIT ( $, .STERADIAN. ) SOLID_ANGLE_UNIT ( ) );
#72 = APPLICATION_PROTOCOL_DEFINITION ( 'international standard', 'config_control_design', 1994, #73 ) ;
#73 = APPLICATION_CONTEXT ( 'configuration controlled 3d designs of mechanical parts and assemblies' ) ;
#74 = DIRECTION ( 'NONE',  ( 1.000000000000000000, 0.0000000000000000000, 0.0000000000000000000 ) ) ;
#75 = MECHANICAL_CONTEXT ( 'NONE', #73, 'mechanical' ) ;
#76 = PERSON_AND_ORGANIZATION_ROLE ( 'design_owner' ) ;
#77 = APPLICATION_CONTEXT ( 'configuration controlled 3d designs of mechanical parts and assemblies' ) ;
#78 = APPLICATION_PROTOCOL_DEFINITION ( 'international standard', 'config_control_design', 1994, #77 ) ;
#79 = APPROVAL_STATUS ( 'not_yet_approved' ) ;
#80 = APPROVAL_ROLE ( '' ) ;
#81 = PERSON_AND_ORGANIZATION_ROLE ( 'creator' ) ;
#82 = DATE_TIME_ROLE ( 'creation_date' ) ;
#83 = APPROVAL_STATUS ( 'not_yet_approved' ) ;
#84 = APPROVAL_ROLE ( '' ) ;
#85 = PERSON_AND_ORGANIZATION_ROLE ( 'creator' ) ;
#86 = PERSON_AND_ORGANIZATION_ROLE ( 'design_supplier' ) ;
#87 = SECURITY_CLASSIFICATION_LEVEL ( 'unclassified' ) ;
#88 = CARTESIAN_POINT ( 'NONE',  ( 0.0000000000000000000, -0.4921259842519683500, -0.07874015748030277500 ) ) ;
#89 = CARTESIAN_POINT ( 'NONE',  ( 6.075019554825451100E-017, 0.4921259842519683500, -0.07874015748031527900 ) ) ;
#90 = LOCAL_TIME ( 10, 52, 9.000000000000000000, #91 ) ;
#91 = COORDINATED_UNIVERSAL_TIME_OFFSET ( 5, 0, .BEHIND. ) ;
#92 = CALENDAR_DATE ( 2014, 22, 4 ) ;
#93 = APPROVAL_PERSON_ORGANIZATION ( #251, #7, #84 ) ;
#94 = LINE ( 'NONE', #50, #206 ) ;
#95 = LINE ( 'NONE', #44, #99 ) ;
#96 = CIRCLE ( 'NONE', #233, 8.228346456692914800 ) ;
#97 = VECTOR ( 'NONE', #198, 39.37007874015748100 ) ;
#98 = LINE ( 'NONE', #196, #97 ) ;
#99 = VECTOR ( 'NONE', #45, 39.37007874015748100 ) ;
#100 = CIRCLE ( 'NONE', #234, 0.4999999999999980600 ) ;
#101 = VECTOR ( 'NONE', #43, 39.37007874015748100 ) ;
#102 = DIRECTION ( 'NONE',  ( 0.0000000000000000000, 1.270488994455271100E-014, 1.000000000000000000 ) ) ;
#103 = CARTESIAN_POINT ( 'NONE',  ( 0.0000000000000000000, 1.000385035004977600E-016, -0.07086614173227710800 ) ) ;
#104 = ORIENTED_EDGE ( 'NONE', *, *, #289, .T. ) ;
#105 = ORIENTED_EDGE ( 'NONE', *, *, #285, .F. ) ;
#106 = ORIENTED_EDGE ( 'NONE', *, *, #287, .T. ) ;
#107 = ORIENTED_EDGE ( 'NONE', *, *, #293, .T. ) ;
#108 = ORIENTED_EDGE ( 'NONE', *, *, #283, .F. ) ;
#109 = ORIENTED_EDGE ( 'NONE', *, *, #282, .T. ) ;
#110 = ORIENTED_EDGE ( 'NONE', *, *, #289, .F. ) ;
#111 = ORIENTED_EDGE ( 'NONE', *, *, #283, .T. ) ;
#112 = ORIENTED_EDGE ( 'NONE', *, *, #295, .T. ) ;
#113 = ORIENTED_EDGE ( 'NONE', *, *, #282, .F. ) ;
#114 = ORIENTED_EDGE ( 'NONE', *, *, #290, .T. ) ;
#115 = ORIENTED_EDGE ( 'NONE', *, *, #291, .F. ) ;
#116 = ORIENTED_EDGE ( 'NONE', *, *, #291, .T. ) ;
#117 = ORIENTED_EDGE ( 'NONE', *, *, #299, .T. ) ;
#118 = ORIENTED_EDGE ( 'NONE', *, *, #290, .F. ) ;
#119 = VERTEX_POINT ( 'NONE', #224 ) ;
#120 = ORIENTED_EDGE ( 'NONE', *, *, #296, .F. ) ;
#121 = FACE_OUTER_BOUND ( 'NONE', #145, .T. ) ;
#122 = VERTEX_POINT ( 'NONE', #230 ) ;
#123 = ORIENTED_EDGE ( 'NONE', *, *, #294, .T. ) ;
#124 = ORIENTED_EDGE ( 'NONE', *, *, #286, .T. ) ;
#125 = VERTEX_POINT ( 'NONE', #88 ) ;
#126 = ORIENTED_EDGE ( 'NONE', *, *, #292, .T. ) ;
#127 = FACE_OUTER_BOUND ( 'NONE', #147, .T. ) ;
#128 = FACE_OUTER_BOUND ( 'NONE', #148, .T. ) ;
#129 = ORIENTED_EDGE ( 'NONE', *, *, #294, .F. ) ;
#130 = VERTEX_POINT ( 'NONE', #229 ) ;
#131 = ORIENTED_EDGE ( 'NONE', *, *, #298, .T. ) ;
#132 = ORIENTED_EDGE ( 'NONE', *, *, #286, .F. ) ;
#133 = VERTEX_POINT ( 'NONE', #277 ) ;
#134 = VERTEX_POINT ( 'NONE', #279 ) ;
#135 = ORIENTED_EDGE ( 'NONE', *, *, #297, .T. ) ;
#136 = FACE_OUTER_BOUND ( 'NONE', #146, .T. ) ;
#137 = VERTEX_POINT ( 'NONE', #278 ) ;
#138 = FACE_OUTER_BOUND ( 'NONE', #159, .T. ) ;
#139 = ORIENTED_EDGE ( 'NONE', *, *, #293, .F. ) ;
#140 = ORIENTED_EDGE ( 'NONE', *, *, #298, .F. ) ;
#141 = VERTEX_POINT ( 'NONE', #89 ) ;
#142 = FACE_OUTER_BOUND ( 'NONE', #160, .T. ) ;
#143 = CLOSED_SHELL ( 'NONE', ( #269, #268, #267, #270, #271, #272, #273, #274, #275 ) ) ;
#144 = ORIENTED_EDGE ( 'NONE', *, *, #295, .F. ) ;
#145 = EDGE_LOOP ( 'NONE', ( #131, #112, #154, #151 ) ) ;
#146 = EDGE_LOOP ( 'NONE', ( #118, #113, #106, #111 ) ) ;
#147 = EDGE_LOOP ( 'NONE', ( #110, #107, #116, #108 ) ) ;
#148 = EDGE_LOOP ( 'NONE', ( #158, #114, #157, #155 ) ) ;
#149 = EDGE_LOOP ( 'NONE', ( #117, #104, #105, #115 ) ) ;
#150 = EDGE_LOOP ( 'NONE', ( #144, #124, #126, #139 ) ) ;
#151 = ORIENTED_EDGE ( 'NONE', *, *, #292, .F. ) ;
#152 = VERTEX_POINT ( 'NONE', #223 ) ;
#153 = EDGE_LOOP ( 'NONE', ( #120, #123, #132 ) ) ;
#154 = ORIENTED_EDGE ( 'NONE', *, *, #299, .F. ) ;
#155 = ORIENTED_EDGE ( 'NONE', *, *, #287, .F. ) ;
#156 = ORIENTED_EDGE ( 'NONE', *, *, #296, .T. ) ;
#157 = ORIENTED_EDGE ( 'NONE', *, *, #285, .T. ) ;
#158 = ORIENTED_EDGE ( 'NONE', *, *, #297, .F. ) ;
#159 = EDGE_LOOP ( 'NONE', ( #109, #135 ) ) ;
#160 = EDGE_LOOP ( 'NONE', ( #129, #156, #140 ) ) ;
#161 = FACE_OUTER_BOUND ( 'NONE', #150, .T. ) ;
#162 = CONICAL_SURFACE ( 'NONE', #288, 0.4999999999999997800, 0.7853981633974190800 ) ;
#163 = SPHERICAL_SURFACE ( 'NONE', #284, 8.228346456692914800 ) ;
#164 = CONICAL_SURFACE ( 'NONE', #281, 0.4921259842519665800, 0.7853981633974559400 ) ;
#165 = FACE_OUTER_BOUND ( 'NONE', #149, .T. ) ;
#166 = CIRCLE ( 'NONE', #255, 0.4921259842519683500 ) ;
#167 = CONICAL_SURFACE ( 'NONE', #280, 0.4999999999999997800, 0.7853981633974190800 ) ;
#168 = CYLINDRICAL_SURFACE ( 'NONE', #257, 0.4999999999999998300 ) ;
#169 = FACE_OUTER_BOUND ( 'NONE', #153, .T. ) ;
#170 = CYLINDRICAL_SURFACE ( 'NONE', #258, 0.4999999999999998300 ) ;
#171 = APPROVAL ( #79, 'UNSPECIFIED' ) ;
#172 = DIRECTION ( 'NONE',  ( -0.0000000000000000000, -1.270488994455271100E-014, -1.000000000000000000 ) ) ;
#173 = DIRECTION ( 'NONE',  ( 1.000000000000000000, 0.0000000000000000000, -0.0000000000000000000 ) ) ;
#174 = CARTESIAN_POINT ( 'NONE',  ( 0.0000000000000000000, 1.813628687964171400E-015, 0.06401028710277820200 ) ) ;
#175 = DIRECTION ( 'NONE',  ( 0.0000000000000000000, 1.000000000000000000, -1.269817584415027700E-014 ) ) ;
#176 = CARTESIAN_POINT ( 'NONE',  ( 0.0000000000000000000, 9.930882549619424400E-016, -8.149606299212592800 ) ) ;
#177 = DIRECTION ( 'NONE',  ( 0.0000000000000000000, 1.000000000000000000, 3.073328992872297400E-016 ) ) ;
#178 = DIRECTION ( 'NONE',  ( -0.0000000000000000000, 3.061515884555943100E-016, -1.000000000000000000 ) ) ;
#179 = DIRECTION ( 'NONE',  ( 0.0000000000000000000, 1.000000000000000000, 2.656035944079321400E-016 ) ) ;
#180 = DIRECTION ( 'NONE',  ( 0.0000000000000000000, 1.000000000000000000, 3.073328992872297400E-016 ) ) ;
#181 = CARTESIAN_POINT ( 'NONE',  ( 0.0000000000000000000, 3.365256830582753600E-017, -0.07874015748031496000 ) ) ;
#182 = DIRECTION ( 'NONE',  ( -0.0000000000000000000, 3.061515884555943100E-016, -1.000000000000000000 ) ) ;
#183 = DIRECTION ( 'NONE',  ( 0.0000000000000000000, -1.000000000000000000, 1.270309317053883000E-014 ) ) ;
#184 = CARTESIAN_POINT ( 'NONE',  ( 0.0000000000000000000, 3.365256830582753600E-017, -0.07874015748031496000 ) ) ;
#185 = DIRECTION ( 'NONE',  ( 0.0000000000000000000, 1.270488994455271100E-014, 1.000000000000000000 ) ) ;
#186 = CARTESIAN_POINT ( 'NONE',  ( 0.0000000000000000000, 3.365256830582755500E-017, -0.07874015748031502900 ) ) ;
#187 = CARTESIAN_POINT ( 'NONE',  ( 0.0000000000000000000, 1.000385035004977600E-016, -0.07086614173227710800 ) ) ;
#188 = PLANE ( 'NONE',  #262 ) ;
#189 = DIRECTION ( 'NONE',  ( 0.0000000000000000000, 1.000000000000000000, -1.269817584415027700E-014 ) ) ;
#190 = DIRECTION ( 'NONE',  ( 1.000000000000000000, 0.0000000000000000000, -0.0000000000000000000 ) ) ;
#191 = DIRECTION ( 'NONE',  ( -0.0000000000000000000, 3.061515884555943100E-016, -1.000000000000000000 ) ) ;
#192 = DIRECTION ( 'NONE',  ( 0.0000000000000000000, 1.000000000000000000, 3.061515884555943100E-016 ) ) ;
#193 = DIRECTION ( 'NONE',  ( -0.0000000000000000000, -1.270488994455271100E-014, -1.000000000000000000 ) ) ;
#194 = CARTESIAN_POINT ( 'NONE',  ( 0.0000000000000000000, 1.813628687964171400E-015, 0.06401028710277820200 ) ) ;
#195 = CARTESIAN_POINT ( 'NONE',  ( 0.0000000000000000000, 9.930882549619424400E-016, -8.149606299212592800 ) ) ;
#196 = CARTESIAN_POINT ( 'NONE',  ( 0.0000000000000000000, 0.4921259842519684100, 0.06401028710277195700 ) ) ;
#197 = DIRECTION ( 'NONE',  ( 0.0000000000000000000, 1.000000000000000000, 2.656035944079321400E-016 ) ) ;
#198 = DIRECTION ( 'NONE',  ( 0.0000000000000000000, 0.7071067811865439100, -0.7071067811865511300 ) ) ;
#199 = CARTESIAN_POINT ( 'NONE',  ( 0.0000000000000000000, 7.748382074351547600E-029, -0.07874015748030902000 ) ) ;
#200 = DIRECTION ( 'NONE',  ( -0.0000000000000000000, -1.270488994455271100E-014, -1.000000000000000000 ) ) ;
#201 = DIRECTION ( 'NONE',  ( 0.0000000000000000000, 1.000000000000000000, -1.269817584415023100E-014 ) ) ;
#202 = ORGANIZATION ( 'UNSPECIFIED', 'UNSPECIFIED', '' ) ;
#203 = SHAPE_DEFINITION_REPRESENTATION ( #1, #304 ) ;
#204 = AXIS2_PLACEMENT_3D ( 'NONE', #64, #60, #74 ) ;
#205 = CIRCLE ( 'NONE', #232, 8.228346456692914800 ) ;
#206 = VECTOR ( 'NONE', #46, 39.37007874015748100 ) ;
#207 = CIRCLE ( 'NONE', #228, 0.4921259842519665800 ) ;
#208 = CIRCLE ( 'NONE', #231, 0.4921259842519683500 ) ;
#209 = CIRCLE ( 'NONE', #227, 0.4999999999999980600 ) ;
#210 = PRODUCT_DEFINITION ( 'UNKNOWN', '', #6, #2 ) ;
#211 = PERSON_AND_ORGANIZATION_ROLE ( 'classification_officer' ) ;
#212 = DATE_TIME_ROLE ( 'classification_date' ) ;
#213 = APPROVAL_STATUS ( 'not_yet_approved' ) ;
#214 = APPROVAL_ROLE ( '' ) ;
#215 = APPROVAL_DATE_TIME ( #222, #14 ) ;
#216 = APPROVAL_PERSON_ORGANIZATION ( #217, #14, #214 ) ;
#217 = PERSON_AND_ORGANIZATION ( #301, #202 ) ;
#218 = DATE_AND_TIME ( #263, #265 ) ;
#219 = COORDINATED_UNIVERSAL_TIME_OFFSET ( 5, 0, .BEHIND. ) ;
#220 = CALENDAR_DATE ( 2014, 22, 4 ) ;
#221 = LOCAL_TIME ( 10, 52, 9.000000000000000000, #219 ) ;
#222 = DATE_AND_TIME ( #220, #221 ) ;
#223 = CARTESIAN_POINT ( 'NONE',  ( 0.0000000000000000000, -1.022192175594332100E-015, 0.07874015748032159300 ) ) ;
#224 = CARTESIAN_POINT ( 'NONE',  ( 6.123233995736743800E-017, -0.4999999999999963900, 0.05613627135475315900 ) ) ;
#225 = DIRECTION ( 'NONE',  ( 0.0000000000000000000, -1.000000000000000000, 1.270309317053883000E-014 ) ) ;
#226 =( GEOMETRIC_REPRESENTATION_CONTEXT ( 3 ) GLOBAL_UNCERTAINTY_ASSIGNED_CONTEXT ( ( #303 ) ) GLOBAL_UNIT_ASSIGNED_CONTEXT ( ( #69, #70, #71 ) ) REPRESENTATION_CONTEXT ( 'NONE', 'WORKASPACE' ) );
#227 = AXIS2_PLACEMENT_3D ( 'NONE', #65, #66, #67 ) ;
#228 = AXIS2_PLACEMENT_3D ( 'NONE', #61, #62, #63 ) ;
#229 = CARTESIAN_POINT ( 'NONE',  ( 0.0000000000000000000, 0.4999999999999997800, 0.05613627135474046100 ) ) ;
#230 = CARTESIAN_POINT ( 'NONE',  ( 6.123233995736763600E-017, -0.4999999999999997200, -0.07086614173227076500 ) ) ;
#231 = AXIS2_PLACEMENT_3D ( 'NONE', #57, #58, #59 ) ;
#232 = AXIS2_PLACEMENT_3D ( 'NONE', #54, #55, #56 ) ;
#233 = AXIS2_PLACEMENT_3D ( 'NONE', #51, #52, #53 ) ;
#234 = AXIS2_PLACEMENT_3D ( 'NONE', #47, #48, #49 ) ;
#235 = AXIS2_PLACEMENT_3D ( 'NONE', #37, #38, #39 ) ;
#236 = DATE_AND_TIME ( #238, #237 ) ;
#237 = LOCAL_TIME ( 10, 52, 9.000000000000000000, #242 ) ;
#238 = CALENDAR_DATE ( 2014, 22, 4 ) ;
#239 = PERSON_AND_ORGANIZATION ( #301, #202 ) ;
#240 = PERSON_AND_ORGANIZATION ( #301, #202 ) ;
#241 = APPROVAL_PERSON_ORGANIZATION ( #239, #171, #80 ) ;
#242 = COORDINATED_UNIVERSAL_TIME_OFFSET ( 5, 0, .BEHIND. ) ;
#243 = DATE_AND_TIME ( #92, #90 ) ;
#244 = APPROVAL_DATE_TIME ( #243, #7 ) ;
#245 = PERSON_AND_ORGANIZATION ( #301, #202 ) ;
#246 = PERSON_AND_ORGANIZATION ( #301, #202 ) ;
#247 = CC_DESIGN_PERSON_AND_ORGANIZATION_ASSIGNMENT ( #240, #76, ( #300 ) ) ;
#248 = CALENDAR_DATE ( 2014, 22, 4 ) ;
#249 = COORDINATED_UNIVERSAL_TIME_OFFSET ( 5, 0, .BEHIND. ) ;
#250 = PERSON_AND_ORGANIZATION ( #301, #202 ) ;
#251 = PERSON_AND_ORGANIZATION ( #301, #202 ) ;
#252 = DATE_AND_TIME ( #248, #253 ) ;
#253 = LOCAL_TIME ( 10, 52, 9.000000000000000000, #249 ) ;
#254 = APPROVAL_DATE_TIME ( #236, #171 ) ;
#255 = AXIS2_PLACEMENT_3D ( 'NONE', #199, #200, #201 ) ;
#256 = AXIS2_PLACEMENT_3D ( 'NONE', #32, #33, #34 ) ;
#257 = AXIS2_PLACEMENT_3D ( 'NONE', #184, #182, #180 ) ;
#258 = AXIS2_PLACEMENT_3D ( 'NONE', #181, #178, #177 ) ;
#259 = AXIS2_PLACEMENT_3D ( 'NONE', #29, #30, #31 ) ;
#260 = AXIS2_PLACEMENT_3D ( 'NONE', #195, #190, #197 ) ;
#261 = AXIS2_PLACEMENT_3D ( 'NONE', #194, #193, #189 ) ;
#262 = AXIS2_PLACEMENT_3D ( 'NONE', #186, #191, #192 ) ;
#263 = CALENDAR_DATE ( 2014, 22, 4 ) ;
#264 = PERSON_AND_ORGANIZATION ( #301, #202 ) ;
#265 = LOCAL_TIME ( 10, 52, 9.000000000000000000, #266 ) ;
#266 = COORDINATED_UNIVERSAL_TIME_OFFSET ( 5, 0, .BEHIND. ) ;
#267 = ADVANCED_FACE ( 'NONE', ( #128 ), #162, .T. ) ;
#268 = ADVANCED_FACE ( 'NONE', ( #121 ), #164, .T. ) ;
#269 = ADVANCED_FACE ( 'NONE', ( #142 ), #163, .T. ) ;
#270 = ADVANCED_FACE ( 'NONE', ( #165 ), #170, .T. ) ;
#271 = ADVANCED_FACE ( 'NONE', ( #127 ), #168, .T. ) ;
#272 = ADVANCED_FACE ( 'NONE', ( #136 ), #167, .T. ) ;
#273 = ADVANCED_FACE ( 'NONE', ( #138 ), #188, .T. ) ;
#274 = ADVANCED_FACE ( 'NONE', ( #161 ), #21, .T. ) ;
#275 = ADVANCED_FACE ( 'NONE', ( #169 ), #26, .T. ) ;
#276 = DIMENSIONAL_EXPONENTS ( 1.000000000000000000, 0.0000000000000000000, 0.0000000000000000000, 0.0000000000000000000, 0.0000000000000000000, 0.0000000000000000000, 0.0000000000000000000 ) ;
#277 = CARTESIAN_POINT ( 'NONE',  ( 6.075019554825430100E-017, -0.4921259842519647400, 0.06401028710278446100 ) ) ;
#278 = CARTESIAN_POINT ( 'NONE',  ( 0.0000000000000000000, 0.4921259842519684100, 0.06401028710277195700 ) ) ;
#279 = CARTESIAN_POINT ( 'NONE',  ( 0.0000000000000000000, 0.4999999999999998300, -0.07086614173228346400 ) ) ;
#280 = AXIS2_PLACEMENT_3D ( 'NONE', #187, #185, #183 ) ;
#281 = AXIS2_PLACEMENT_3D ( 'NONE', #174, #172, #175 ) ;
#282 = EDGE_CURVE ( 'NONE', #125, #141, #166, .T. ) ;
#283 = EDGE_CURVE ( 'NONE', #122, #134, #22, .T. ) ;
#284 = AXIS2_PLACEMENT_3D ( 'NONE', #176, #173, #179 ) ;
#285 = EDGE_CURVE ( 'NONE', #134, #122, #20, .T. ) ;
#286 = EDGE_CURVE ( 'NONE', #133, #137, #28, .T. ) ;
#287 = EDGE_CURVE ( 'NONE', #125, #122, #27, .T. ) ;
#288 = AXIS2_PLACEMENT_3D ( 'NONE', #103, #102, #225 ) ;
#289 = EDGE_CURVE ( 'NONE', #119, #122, #19, .T. ) ;
#290 = EDGE_CURVE ( 'NONE', #141, #134, #24, .T. ) ;
#291 = EDGE_CURVE ( 'NONE', #130, #134, #95, .T. ) ;
#292 = EDGE_CURVE ( 'NONE', #137, #130, #98, .T. ) ;
#293 = EDGE_CURVE ( 'NONE', #119, #130, #100, .T. ) ;
#294 = EDGE_CURVE ( 'NONE', #152, #137, #96, .T. ) ;
#295 = EDGE_CURVE ( 'NONE', #133, #119, #94, .T. ) ;
#296 = EDGE_CURVE ( 'NONE', #152, #133, #205, .T. ) ;
#297 = EDGE_CURVE ( 'NONE', #141, #125, #208, .T. ) ;
#298 = EDGE_CURVE ( 'NONE', #137, #133, #207, .T. ) ;
#299 = EDGE_CURVE ( 'NONE', #130, #119, #209, .T. ) ;
#300 = PRODUCT ( 'TTN023916-E0W', 'TTN023916-E0W', '', ( #75 ) ) ;
#301 = PERSON ( 'UNSPECIFIED', 'UNSPECIFIED', 'UNSPECIFIED', ('UNSPECIFIED'), ('UNSPECIFIED'), ('UNSPECIFIED') ) ;
#302 = MANIFOLD_SOLID_BREP ( 'TTN023928-1-solid1', #143 ) ;
#303 = UNCERTAINTY_MEASURE_WITH_UNIT (LENGTH_MEASURE( 1.000000000000000100E-005 ), #69, 'distance_accuracy_value', 'NONE');
#304 = ADVANCED_BREP_SHAPE_REPRESENTATION ( 'TTN023916-E0W', ( #302, #204 ), #226 ) ;
ENDSEC;
END-ISO-10303-21;
