ISO-10303-21;
HEADER;
FILE_DESCRIPTION (( 'STEP AP203' ),
    '1' );
FILE_NAME ('Web Model 14684_14686.step',
    '2020-04-13T13:38:34',
    ( '' ),
    ( '' ),
    'SwSTEP 2.0',
    'SolidWorks 2018',
    '' );
FILE_SCHEMA (( 'CONFIG_CONTROL_DESIGN' ));
ENDSEC;

DATA;
#1 = CC_DESIGN_PERSON_AND_ORGANIZATION_ASSIGNMENT ( #148, #61, ( #119 ) ) ;
#2 = LOCAL_TIME ( 9, 38, 34.00000000000000000, #120 ) ;
#3 = APPROVAL_PERSON_ORGANIZATION ( #152, #28, #145 ) ;
#4 = APPROVAL_ROLE ( '' ) ;
#5 = LOCAL_TIME ( 9, 38, 34.00000000000000000, #29 ) ;
#6 = PLANE ( 'NONE',  #136 ) ;
#7 = DIRECTION ( 'NONE',  ( -1.000000000000000000, -0.0000000000000000000, -0.0000000000000000000 ) ) ;
#8 = DIRECTION ( 'NONE',  ( 0.0000000000000000000, 0.0000000000000000000, -1.000000000000000000 ) ) ;
#9 = APPROVAL_PERSON_ORGANIZATION ( #134, #46, #112 ) ;
#10 = CIRCLE ( 'NONE', #56, 5.500000000000000000 ) ;
#11 = DIRECTION ( 'NONE',  ( 0.0000000000000000000, 0.0000000000000000000, 1.000000000000000000 ) ) ;
#12 = APPROVAL ( #170, 'UNSPECIFIED' ) ;
#13 = ADVANCED_FACE ( 'NONE', ( #164 ), #58, .T. ) ;
#14 = LOCAL_TIME ( 9, 38, 34.00000000000000000, #98 ) ;
#15 = DATE_TIME_ROLE ( 'creation_date' ) ;
#16 = EDGE_LOOP ( 'NONE', ( #91, #106, #53, #77 ) ) ;
#17 =( NAMED_UNIT ( * ) PLANE_ANGLE_UNIT ( ) SI_UNIT ( $, .RADIAN. ) );
#18 = APPROVAL_PERSON_ORGANIZATION ( #104, #12, #4 ) ;
#19 = CC_DESIGN_APPROVAL ( #12, ( #119 ) ) ;
#20 = LOCAL_TIME ( 9, 38, 34.00000000000000000, #79 ) ;
#21 = EDGE_CURVE ( 'NONE', #130, #45, #10, .T. ) ;
#22 = AXIS2_PLACEMENT_3D ( 'NONE', #107, #67, #11 ) ;
#23 = DATE_AND_TIME ( #32, #14 ) ;
#24 = CC_DESIGN_APPROVAL ( #28, ( #118 ) ) ;
#25 = ADVANCED_FACE ( 'NONE', ( #76 ), #83, .T. ) ;
#26 = CALENDAR_DATE ( 2020, 13, 4 ) ;
#27 = CARTESIAN_POINT ( 'NONE',  ( 1.500000000000000000, 0.0000000000000000000, 5.500000000000000000 ) ) ;
#28 = APPROVAL ( #142, 'UNSPECIFIED' ) ;
#29 = COORDINATED_UNIVERSAL_TIME_OFFSET ( 5, 0, .BEHIND. ) ;
#30 = VERTEX_POINT ( 'NONE', #27 ) ;
#31 = EDGE_CURVE ( 'NONE', #113, #45, #153, .T. ) ;
#32 = CALENDAR_DATE ( 2020, 13, 4 ) ;
#33 = DIRECTION ( 'NONE',  ( 1.000000000000000000, 0.0000000000000000000, 0.0000000000000000000 ) ) ;
#34 = CARTESIAN_POINT ( 'NONE',  ( 1.500000000000000000, 0.0000000000000000000, 0.0000000000000000000 ) ) ;
#35 = ADVANCED_BREP_SHAPE_REPRESENTATION ( 'Web Model 14684_14686', ( #51, #132 ), #96 ) ;
#36 = PERSON_AND_ORGANIZATION ( #124, #143 ) ;
#37 = VECTOR ( 'NONE', #111, 1000.000000000000000 ) ;
#38 = CC_DESIGN_PERSON_AND_ORGANIZATION_ASSIGNMENT ( #137, #57, ( #168 ) ) ;
#39 = LOCAL_TIME ( 9, 38, 34.00000000000000000, #66 ) ;
#40 = EDGE_CURVE ( 'NONE', #45, #130, #110, .T. ) ;
#41 = ORIENTED_EDGE ( 'NONE', *, *, #21, .F. ) ;
#42 = DIRECTION ( 'NONE',  ( -1.000000000000000000, -0.0000000000000000000, -0.0000000000000000000 ) ) ;
#43 = CC_DESIGN_PERSON_AND_ORGANIZATION_ASSIGNMENT ( #133, #47, ( #122 ) ) ;
#44 = APPROVAL_DATE_TIME ( #23, #46 ) ;
#45 = VERTEX_POINT ( 'NONE', #81 ) ;
#46 = APPROVAL ( #69, 'UNSPECIFIED' ) ;
#47 = PERSON_AND_ORGANIZATION_ROLE ( 'design_owner' ) ;
#48 = DIRECTION ( 'NONE',  ( 1.000000000000000000, 0.0000000000000000000, 0.0000000000000000000 ) ) ;
#49 = CARTESIAN_POINT ( 'NONE',  ( -1.500000000000000000, 0.0000000000000000000, 0.0000000000000000000 ) ) ;
#50 = DIRECTION ( 'NONE',  ( 1.000000000000000000, 0.0000000000000000000, 0.0000000000000000000 ) ) ;
#51 = MANIFOLD_SOLID_BREP ( 'Boss-Extrude1', #160 ) ;
#52 = EDGE_CURVE ( 'NONE', #30, #113, #139, .T. ) ;
#53 = ORIENTED_EDGE ( 'NONE', *, *, #128, .T. ) ;
#54 = CARTESIAN_POINT ( 'NONE',  ( 1.500000000000000000, 6.735557395310442023E-16, -5.500000000000000000 ) ) ;
#55 = CARTESIAN_POINT ( 'NONE',  ( -1.500000000000000000, 0.0000000000000000000, 0.0000000000000000000 ) ) ;
#56 = AXIS2_PLACEMENT_3D ( 'NONE', #55, #151, #68 ) ;
#57 = PERSON_AND_ORGANIZATION_ROLE ( 'classification_officer' ) ;
#58 = CYLINDRICAL_SURFACE ( 'NONE', #22, 5.500000000000000000 ) ;
#59 = MECHANICAL_CONTEXT ( 'NONE', #71, 'mechanical' ) ;
#60 = DIRECTION ( 'NONE',  ( 1.000000000000000000, 0.0000000000000000000, 0.0000000000000000000 ) ) ;
#61 = PERSON_AND_ORGANIZATION_ROLE ( 'design_supplier' ) ;
#62 = DATE_AND_TIME ( #95, #20 ) ;
#63 = PRODUCT_DEFINITION_SHAPE ( 'NONE', 'NONE',  #118 ) ;
#64 =( LENGTH_UNIT ( ) NAMED_UNIT ( * ) SI_UNIT ( .MILLI., .METRE. ) );
#65 = CC_DESIGN_SECURITY_CLASSIFICATION ( #168, ( #119 ) ) ;
#66 = COORDINATED_UNIVERSAL_TIME_OFFSET ( 5, 0, .BEHIND. ) ;
#67 = DIRECTION ( 'NONE',  ( -1.000000000000000000, -0.0000000000000000000, -0.0000000000000000000 ) ) ;
#68 = DIRECTION ( 'NONE',  ( 0.0000000000000000000, 0.0000000000000000000, -1.000000000000000000 ) ) ;
#69 = APPROVAL_STATUS ( 'not_yet_approved' ) ;
#70 = EDGE_LOOP ( 'NONE', ( #121, #147 ) ) ;
#71 = APPLICATION_CONTEXT ( 'configuration controlled 3d designs of mechanical parts and assemblies' ) ;
#72 = EDGE_CURVE ( 'NONE', #113, #30, #162, .T. ) ;
#73 = APPLICATION_PROTOCOL_DEFINITION ( 'international standard', 'config_control_design', 1994, #140 ) ;
#74 = UNCERTAINTY_MEASURE_WITH_UNIT (LENGTH_MEASURE( 1.000000000000000082E-05 ), #64, 'distance_accuracy_value', 'NONE');
#75 = DIRECTION ( 'NONE',  ( 0.0000000000000000000, 0.0000000000000000000, -1.000000000000000000 ) ) ;
#76 = FACE_OUTER_BOUND ( 'NONE', #165, .T. ) ;
#77 = ORIENTED_EDGE ( 'NONE', *, *, #21, .T. ) ;
#78 = AXIS2_PLACEMENT_3D ( 'NONE', #49, #33, #129 ) ;
#79 = COORDINATED_UNIVERSAL_TIME_OFFSET ( 5, 0, .BEHIND. ) ;
#80 = ORIENTED_EDGE ( 'NONE', *, *, #31, .T. ) ;
#81 = CARTESIAN_POINT ( 'NONE',  ( -1.500000000000000000, 6.735557395310442023E-16, -5.500000000000000000 ) ) ;
#82 = ADVANCED_FACE ( 'NONE', ( #125 ), #6, .T. ) ;
#83 = CYLINDRICAL_SURFACE ( 'NONE', #90, 5.500000000000000000 ) ;
#84 = CC_DESIGN_PERSON_AND_ORGANIZATION_ASSIGNMENT ( #36, #169, ( #118 ) ) ;
#85 = ORIENTED_EDGE ( 'NONE', *, *, #40, .F. ) ;
#86 = DIRECTION ( 'NONE',  ( 1.000000000000000000, 0.0000000000000000000, 0.0000000000000000000 ) ) ;
#87 = CARTESIAN_POINT ( 'NONE',  ( -1.500000000000000000, 0.0000000000000000000, 5.500000000000000000 ) ) ;
#88 = AXIS2_PLACEMENT_3D ( 'NONE', #157, #50, #114 ) ;
#89 = CARTESIAN_POINT ( 'NONE',  ( 1.500000000000000000, 0.0000000000000000000, 5.500000000000000000 ) ) ;
#90 = AXIS2_PLACEMENT_3D ( 'NONE', #149, #42, #135 ) ;
#91 = ORIENTED_EDGE ( 'NONE', *, *, #31, .F. ) ;
#92 = APPROVAL_DATE_TIME ( #93, #12 ) ;
#93 = DATE_AND_TIME ( #116, #2 ) ;
#94 = EDGE_LOOP ( 'NONE', ( #41, #85 ) ) ;
#95 = CALENDAR_DATE ( 2020, 13, 4 ) ;
#96 =( GEOMETRIC_REPRESENTATION_CONTEXT ( 3 ) GLOBAL_UNCERTAINTY_ASSIGNED_CONTEXT ( ( #74 ) ) GLOBAL_UNIT_ASSIGNED_CONTEXT ( ( #64, #17, #171 ) ) REPRESENTATION_CONTEXT ( 'NONE', 'WORKASPACE' ) );
#97 = SECURITY_CLASSIFICATION_LEVEL ( 'unclassified' ) ;
#98 = COORDINATED_UNIVERSAL_TIME_OFFSET ( 5, 0, .BEHIND. ) ;
#99 = PERSON_AND_ORGANIZATION_ROLE ( 'creator' ) ;
#100 = DATE_AND_TIME ( #26, #5 ) ;
#101 = DIRECTION ( 'NONE',  ( 1.000000000000000000, 0.0000000000000000000, 0.0000000000000000000 ) ) ;
#102 = PERSON_AND_ORGANIZATION ( #124, #143 ) ;
#103 = FACE_OUTER_BOUND ( 'NONE', #94, .T. ) ;
#104 = PERSON_AND_ORGANIZATION ( #124, #143 ) ;
#105 = ADVANCED_FACE ( 'NONE', ( #103 ), #144, .F. ) ;
#106 = ORIENTED_EDGE ( 'NONE', *, *, #52, .F. ) ;
#107 = CARTESIAN_POINT ( 'NONE',  ( 1.500000000000000000, 0.0000000000000000000, 0.0000000000000000000 ) ) ;
#108 = SHAPE_DEFINITION_REPRESENTATION ( #63, #35 ) ;
#109 = APPROVAL_DATE_TIME ( #100, #28 ) ;
#110 = CIRCLE ( 'NONE', #78, 5.500000000000000000 ) ;
#111 = DIRECTION ( 'NONE',  ( -1.000000000000000000, -0.0000000000000000000, -0.0000000000000000000 ) ) ;
#112 = APPROVAL_ROLE ( '' ) ;
#113 = VERTEX_POINT ( 'NONE', #141 ) ;
#114 = DIRECTION ( 'NONE',  ( 0.0000000000000000000, 0.0000000000000000000, -1.000000000000000000 ) ) ;
#115 = CC_DESIGN_DATE_AND_TIME_ASSIGNMENT ( #163, #172, ( #168 ) ) ;
#116 = CALENDAR_DATE ( 2020, 13, 4 ) ;
#117 = VECTOR ( 'NONE', #7, 1000.000000000000000 ) ;
#118 = PRODUCT_DEFINITION ( 'UNKNOWN', '', #119, #131 ) ;
#119 = PRODUCT_DEFINITION_FORMATION_WITH_SPECIFIED_SOURCE ( 'ANY', '', #122, .NOT_KNOWN. ) ;
#120 = COORDINATED_UNIVERSAL_TIME_OFFSET ( 5, 0, .BEHIND. ) ;
#121 = ORIENTED_EDGE ( 'NONE', *, *, #52, .T. ) ;
#122 = PRODUCT ( 'Web Model 14684_14686', 'Web Model 14684_14686', '', ( #59 ) ) ;
#123 = ORIENTED_EDGE ( 'NONE', *, *, #40, .T. ) ;
#124 = PERSON ( 'UNSPECIFIED', 'UNSPECIFIED', 'UNSPECIFIED', ('UNSPECIFIED'), ('UNSPECIFIED'), ('UNSPECIFIED') ) ;
#125 = FACE_OUTER_BOUND ( 'NONE', #70, .T. ) ;
#126 = APPLICATION_PROTOCOL_DEFINITION ( 'international standard', 'config_control_design', 1994, #71 ) ;
#127 = CARTESIAN_POINT ( 'NONE',  ( 1.500000000000000000, 0.0000000000000000000, 0.0000000000000000000 ) ) ;
#128 = EDGE_CURVE ( 'NONE', #30, #130, #154, .T. ) ;
#129 = DIRECTION ( 'NONE',  ( 0.0000000000000000000, 0.0000000000000000000, -1.000000000000000000 ) ) ;
#130 = VERTEX_POINT ( 'NONE', #87 ) ;
#131 = DESIGN_CONTEXT ( 'detailed design', #140, 'design' ) ;
#132 = AXIS2_PLACEMENT_3D ( 'NONE', #155, #173, #86 ) ;
#133 = PERSON_AND_ORGANIZATION ( #124, #143 ) ;
#134 = PERSON_AND_ORGANIZATION ( #124, #143 ) ;
#135 = DIRECTION ( 'NONE',  ( 0.0000000000000000000, 0.0000000000000000000, 1.000000000000000000 ) ) ;
#136 = AXIS2_PLACEMENT_3D ( 'NONE', #127, #48, #8 ) ;
#137 = PERSON_AND_ORGANIZATION ( #124, #143 ) ;
#138 = AXIS2_PLACEMENT_3D ( 'NONE', #34, #101, #158 ) ;
#139 = CIRCLE ( 'NONE', #138, 5.500000000000000000 ) ;
#140 = APPLICATION_CONTEXT ( 'configuration controlled 3d designs of mechanical parts and assemblies' ) ;
#141 = CARTESIAN_POINT ( 'NONE',  ( 1.500000000000000000, 6.735557395310442023E-16, -5.500000000000000000 ) ) ;
#142 = APPROVAL_STATUS ( 'not_yet_approved' ) ;
#143 = ORGANIZATION ( 'UNSPECIFIED', 'UNSPECIFIED', '' ) ;
#144 = PLANE ( 'NONE',  #161 ) ;
#145 = APPROVAL_ROLE ( '' ) ;
#146 = PRODUCT_RELATED_PRODUCT_CATEGORY ( 'detail', '', ( #122 ) ) ;
#147 = ORIENTED_EDGE ( 'NONE', *, *, #72, .T. ) ;
#148 = PERSON_AND_ORGANIZATION ( #124, #143 ) ;
#149 = CARTESIAN_POINT ( 'NONE',  ( 1.500000000000000000, 0.0000000000000000000, 0.0000000000000000000 ) ) ;
#150 = ORIENTED_EDGE ( 'NONE', *, *, #128, .F. ) ;
#151 = DIRECTION ( 'NONE',  ( 1.000000000000000000, 0.0000000000000000000, 0.0000000000000000000 ) ) ;
#152 = PERSON_AND_ORGANIZATION ( #124, #143 ) ;
#153 = LINE ( 'NONE', #54, #37 ) ;
#154 = LINE ( 'NONE', #89, #117 ) ;
#155 = CARTESIAN_POINT ( 'NONE',  ( 0.0000000000000000000, 0.0000000000000000000, 0.0000000000000000000 ) ) ;
#156 = CC_DESIGN_DATE_AND_TIME_ASSIGNMENT ( #62, #15, ( #118 ) ) ;
#157 = CARTESIAN_POINT ( 'NONE',  ( 1.500000000000000000, 0.0000000000000000000, 0.0000000000000000000 ) ) ;
#158 = DIRECTION ( 'NONE',  ( 0.0000000000000000000, 0.0000000000000000000, -1.000000000000000000 ) ) ;
#159 = CALENDAR_DATE ( 2020, 13, 4 ) ;
#160 = CLOSED_SHELL ( 'NONE', ( #25, #13, #82, #105 ) ) ;
#161 = AXIS2_PLACEMENT_3D ( 'NONE', #174, #60, #75 ) ;
#162 = CIRCLE ( 'NONE', #88, 5.500000000000000000 ) ;
#163 = DATE_AND_TIME ( #159, #39 ) ;
#164 = FACE_OUTER_BOUND ( 'NONE', #16, .T. ) ;
#165 = EDGE_LOOP ( 'NONE', ( #167, #80, #123, #150 ) ) ;
#166 = CC_DESIGN_PERSON_AND_ORGANIZATION_ASSIGNMENT ( #102, #99, ( #119 ) ) ;
#167 = ORIENTED_EDGE ( 'NONE', *, *, #72, .F. ) ;
#168 = SECURITY_CLASSIFICATION ( '', '', #97 ) ;
#169 = PERSON_AND_ORGANIZATION_ROLE ( 'creator' ) ;
#170 = APPROVAL_STATUS ( 'not_yet_approved' ) ;
#171 =( NAMED_UNIT ( * ) SI_UNIT ( $, .STERADIAN. ) SOLID_ANGLE_UNIT ( ) );
#172 = DATE_TIME_ROLE ( 'classification_date' ) ;
#173 = DIRECTION ( 'NONE',  ( 0.0000000000000000000, 0.0000000000000000000, 1.000000000000000000 ) ) ;
#174 = CARTESIAN_POINT ( 'NONE',  ( -1.500000000000000000, 0.0000000000000000000, 0.0000000000000000000 ) ) ;
#175 = CC_DESIGN_APPROVAL ( #46, ( #168 ) ) ;
ENDSEC;
END-ISO-10303-21;
