ISO-10303-21;
HEADER;
FILE_DESCRIPTION (( 'STEP AP203' ),
    '1' );
FILE_NAME ('Web Model 68807_68808.step',
    '2017-03-06T17:53:30',
    ( '' ),
    ( '' ),
    'SwSTEP 2.0',
    'SolidWorks 2016',
    '' );
FILE_SCHEMA (( 'CONFIG_CONTROL_DESIGN' ));
ENDSEC;

DATA;
#1 = CC_DESIGN_SECURITY_CLASSIFICATION ( #36, ( #65 ) ) ;
#2 = DIRECTION ( 'NONE',  ( 0.0000000000000000000, 0.0000000000000000000, 1.000000000000000000 ) ) ;
#3 = PERSON_AND_ORGANIZATION ( #108, #12 ) ;
#4 = DIRECTION ( 'NONE',  ( 0.0000000000000000000, 0.0000000000000000000, 1.000000000000000000 ) ) ;
#5 = ADVANCED_FACE ( 'NONE', ( #82 ), #98, .T. ) ;
#6 = DIRECTION ( 'NONE',  ( 1.000000000000000000, 0.0000000000000000000, 0.0000000000000000000 ) ) ;
#7 = CARTESIAN_POINT ( 'NONE',  ( -12.50000000000000000, 0.0000000000000000000, 2.000000000000000000 ) ) ;
#8 = LINE ( 'NONE', #31, #16 ) ;
#9 = PERSON_AND_ORGANIZATION ( #108, #12 ) ;
#10 = CC_DESIGN_APPROVAL ( #14, ( #36 ) ) ;
#11 = PRODUCT ( 'Web Model 68807_68808', 'Web Model 68807_68808', '', ( #38 ) ) ;
#12 = ORGANIZATION ( 'UNSPECIFIED', 'UNSPECIFIED', '' ) ;
#13 = APPROVAL_ROLE ( '' ) ;
#14 = APPROVAL ( #160, 'UNSPECIFIED' ) ;
#15 = PERSON_AND_ORGANIZATION ( #108, #12 ) ;
#16 = VECTOR ( 'NONE', #22, 1000.000000000000000 ) ;
#17 = ADVANCED_FACE ( 'NONE', ( #156 ), #164, .T. ) ;
#18 = APPROVAL_STATUS ( 'not_yet_approved' ) ;
#19 = ORIENTED_EDGE ( 'NONE', *, *, #139, .T. ) ;
#20 = CIRCLE ( 'NONE', #51, 12.50000000000000000 ) ;
#21 = CC_DESIGN_DATE_AND_TIME_ASSIGNMENT ( #151, #172, ( #36 ) ) ;
#22 = DIRECTION ( 'NONE',  ( -0.0000000000000000000, -0.0000000000000000000, -1.000000000000000000 ) ) ;
#23 = APPROVAL_PERSON_ORGANIZATION ( #168, #77, #109 ) ;
#24 = CARTESIAN_POINT ( 'NONE',  ( 0.0000000000000000000, 0.0000000000000000000, 0.0000000000000000000 ) ) ;
#25 = AXIS2_PLACEMENT_3D ( 'NONE', #121, #2, #128 ) ;
#26 = UNCERTAINTY_MEASURE_WITH_UNIT (LENGTH_MEASURE( 1.000000000000000100E-005 ), #43, 'distance_accuracy_value', 'NONE');
#27 = COORDINATED_UNIVERSAL_TIME_OFFSET ( 5, 0, .BEHIND. ) ;
#28 = CC_DESIGN_PERSON_AND_ORGANIZATION_ASSIGNMENT ( #41, #144, ( #36 ) ) ;
#29 = CIRCLE ( 'NONE', #120, 12.50000000000000000 ) ;
#30 = AXIS2_PLACEMENT_3D ( 'NONE', #24, #57, #99 ) ;
#31 = CARTESIAN_POINT ( 'NONE',  ( 12.50000000000000000, 1.530808498934191500E-015, 2.000000000000000000 ) ) ;
#32 = CARTESIAN_POINT ( 'NONE',  ( -12.50000000000000000, 0.0000000000000000000, 2.000000000000000000 ) ) ;
#33 = APPROVAL_PERSON_ORGANIZATION ( #3, #14, #159 ) ;
#34 = DIRECTION ( 'NONE',  ( 0.0000000000000000000, 0.0000000000000000000, 1.000000000000000000 ) ) ;
#35 = COORDINATED_UNIVERSAL_TIME_OFFSET ( 5, 0, .BEHIND. ) ;
#36 = SECURITY_CLASSIFICATION ( '', '', #67 ) ;
#37 = FACE_OUTER_BOUND ( 'NONE', #171, .T. ) ;
#38 = MECHANICAL_CONTEXT ( 'NONE', #39, 'mechanical' ) ;
#39 = APPLICATION_CONTEXT ( 'configuration controlled 3d designs of mechanical parts and assemblies' ) ;
#40 = CC_DESIGN_PERSON_AND_ORGANIZATION_ASSIGNMENT ( #15, #158, ( #65 ) ) ;
#41 = PERSON_AND_ORGANIZATION ( #108, #12 ) ;
#42 = APPLICATION_PROTOCOL_DEFINITION ( 'international standard', 'config_control_design', 1994, #56 ) ;
#43 =( LENGTH_UNIT ( ) NAMED_UNIT ( * ) SI_UNIT ( .MILLI., .METRE. ) );
#44 = DESIGN_CONTEXT ( 'detailed design', #56, 'design' ) ;
#45 = CC_DESIGN_PERSON_AND_ORGANIZATION_ASSIGNMENT ( #162, #50, ( #65 ) ) ;
#46 = DIRECTION ( 'NONE',  ( 1.000000000000000000, 0.0000000000000000000, 0.0000000000000000000 ) ) ;
#47 = DIRECTION ( 'NONE',  ( 1.000000000000000000, 0.0000000000000000000, 0.0000000000000000000 ) ) ;
#48 = COORDINATED_UNIVERSAL_TIME_OFFSET ( 5, 0, .BEHIND. ) ;
#49 = CC_DESIGN_APPROVAL ( #83, ( #65 ) ) ;
#50 = PERSON_AND_ORGANIZATION_ROLE ( 'creator' ) ;
#51 = AXIS2_PLACEMENT_3D ( 'NONE', #76, #4, #6 ) ;
#52 = LOCAL_TIME ( 12, 53, 30.00000000000000000, #27 ) ;
#53 = PERSON_AND_ORGANIZATION_ROLE ( 'creator' ) ;
#54 = PRODUCT_DEFINITION ( 'UNKNOWN', '', #65, #44 ) ;
#55 = ADVANCED_BREP_SHAPE_REPRESENTATION ( 'Web Model 68807_68808', ( #167, #30 ), #131 ) ;
#56 = APPLICATION_CONTEXT ( 'configuration controlled 3d designs of mechanical parts and assemblies' ) ;
#57 = DIRECTION ( 'NONE',  ( 0.0000000000000000000, 0.0000000000000000000, 1.000000000000000000 ) ) ;
#58 = CC_DESIGN_PERSON_AND_ORGANIZATION_ASSIGNMENT ( #9, #53, ( #54 ) ) ;
#59 = ADVANCED_FACE ( 'NONE', ( #37 ), #153, .F. ) ;
#60 = CARTESIAN_POINT ( 'NONE',  ( 12.50000000000000000, 1.530808498934191500E-015, 2.000000000000000000 ) ) ;
#61 = COORDINATED_UNIVERSAL_TIME_OFFSET ( 5, 0, .BEHIND. ) ;
#62 = VERTEX_POINT ( 'NONE', #129 ) ;
#63 = AXIS2_PLACEMENT_3D ( 'NONE', #101, #79, #78 ) ;
#64 = LOCAL_TIME ( 12, 53, 30.00000000000000000, #35 ) ;
#65 = PRODUCT_DEFINITION_FORMATION_WITH_SPECIFIED_SOURCE ( 'ANY', '', #11, .NOT_KNOWN. ) ;
#66 = ORIENTED_EDGE ( 'NONE', *, *, #150, .F. ) ;
#67 = SECURITY_CLASSIFICATION_LEVEL ( 'unclassified' ) ;
#68 = ORIENTED_EDGE ( 'NONE', *, *, #127, .T. ) ;
#69 = CC_DESIGN_DATE_AND_TIME_ASSIGNMENT ( #117, #175, ( #54 ) ) ;
#70 = PRODUCT_DEFINITION_SHAPE ( 'NONE', 'NONE',  #54 ) ;
#71 = COORDINATED_UNIVERSAL_TIME_OFFSET ( 5, 0, .BEHIND. ) ;
#72 = EDGE_LOOP ( 'NONE', ( #84, #68 ) ) ;
#73 = AXIS2_PLACEMENT_3D ( 'NONE', #89, #154, #138 ) ;
#74 = CARTESIAN_POINT ( 'NONE',  ( 12.50000000000000000, 1.530808498934191500E-015, -2.000000000000000000 ) ) ;
#75 = FACE_OUTER_BOUND ( 'NONE', #137, .T. ) ;
#76 = CARTESIAN_POINT ( 'NONE',  ( 0.0000000000000000000, 0.0000000000000000000, 2.000000000000000000 ) ) ;
#77 = APPROVAL ( #18, 'UNSPECIFIED' ) ;
#78 = DIRECTION ( 'NONE',  ( -1.000000000000000000, 0.0000000000000000000, 0.0000000000000000000 ) ) ;
#79 = DIRECTION ( 'NONE',  ( -0.0000000000000000000, -0.0000000000000000000, -1.000000000000000000 ) ) ;
#80 = LOCAL_TIME ( 12, 53, 30.00000000000000000, #48 ) ;
#81 =( NAMED_UNIT ( * ) SI_UNIT ( $, .STERADIAN. ) SOLID_ANGLE_UNIT ( ) );
#82 = FACE_OUTER_BOUND ( 'NONE', #87, .T. ) ;
#83 = APPROVAL ( #161, 'UNSPECIFIED' ) ;
#84 = ORIENTED_EDGE ( 'NONE', *, *, #150, .T. ) ;
#85 = CC_DESIGN_PERSON_AND_ORGANIZATION_ASSIGNMENT ( #134, #149, ( #11 ) ) ;
#86 = CALENDAR_DATE ( 2017, 6, 3 ) ;
#87 = EDGE_LOOP ( 'NONE', ( #106, #66, #19, #96 ) ) ;
#88 = CC_DESIGN_APPROVAL ( #77, ( #54 ) ) ;
#89 = CARTESIAN_POINT ( 'NONE',  ( 0.0000000000000000000, 0.0000000000000000000, 2.000000000000000000 ) ) ;
#90 = CARTESIAN_POINT ( 'NONE',  ( 0.0000000000000000000, 0.0000000000000000000, 2.000000000000000000 ) ) ;
#91 = CARTESIAN_POINT ( 'NONE',  ( 0.0000000000000000000, 0.0000000000000000000, -2.000000000000000000 ) ) ;
#92 = LOCAL_TIME ( 12, 53, 30.00000000000000000, #61 ) ;
#93 = CYLINDRICAL_SURFACE ( 'NONE', #63, 12.50000000000000000 ) ;
#94 = VERTEX_POINT ( 'NONE', #32 ) ;
#95 =( NAMED_UNIT ( * ) PLANE_ANGLE_UNIT ( ) SI_UNIT ( $, .RADIAN. ) );
#96 = ORIENTED_EDGE ( 'NONE', *, *, #135, .T. ) ;
#97 = CALENDAR_DATE ( 2017, 6, 3 ) ;
#98 = CYLINDRICAL_SURFACE ( 'NONE', #165, 12.50000000000000000 ) ;
#99 = DIRECTION ( 'NONE',  ( 1.000000000000000000, 0.0000000000000000000, 0.0000000000000000000 ) ) ;
#100 = LOCAL_TIME ( 12, 53, 30.00000000000000000, #71 ) ;
#101 = CARTESIAN_POINT ( 'NONE',  ( 0.0000000000000000000, 0.0000000000000000000, 2.000000000000000000 ) ) ;
#102 = DIRECTION ( 'NONE',  ( 0.0000000000000000000, 0.0000000000000000000, 1.000000000000000000 ) ) ;
#103 = VERTEX_POINT ( 'NONE', #60 ) ;
#104 = DIRECTION ( 'NONE',  ( -1.000000000000000000, 0.0000000000000000000, 0.0000000000000000000 ) ) ;
#105 = CALENDAR_DATE ( 2017, 6, 3 ) ;
#106 = ORIENTED_EDGE ( 'NONE', *, *, #148, .F. ) ;
#107 = VECTOR ( 'NONE', #125, 1000.000000000000000 ) ;
#108 = PERSON ( 'UNSPECIFIED', 'UNSPECIFIED', 'UNSPECIFIED', ('UNSPECIFIED'), ('UNSPECIFIED'), ('UNSPECIFIED') ) ;
#109 = APPROVAL_ROLE ( '' ) ;
#110 = DATE_AND_TIME ( #86, #52 ) ;
#111 = CARTESIAN_POINT ( 'NONE',  ( 0.0000000000000000000, 0.0000000000000000000, -2.000000000000000000 ) ) ;
#112 = PRODUCT_RELATED_PRODUCT_CATEGORY ( 'detail', '', ( #11 ) ) ;
#113 = CALENDAR_DATE ( 2017, 6, 3 ) ;
#114 = CARTESIAN_POINT ( 'NONE',  ( 0.0000000000000000000, 0.0000000000000000000, 2.000000000000000000 ) ) ;
#115 = ORIENTED_EDGE ( 'NONE', *, *, #143, .F. ) ;
#116 = ORIENTED_EDGE ( 'NONE', *, *, #127, .F. ) ;
#117 = DATE_AND_TIME ( #97, #64 ) ;
#118 = ORIENTED_EDGE ( 'NONE', *, *, #139, .F. ) ;
#119 = ORIENTED_EDGE ( 'NONE', *, *, #143, .T. ) ;
#120 = AXIS2_PLACEMENT_3D ( 'NONE', #111, #34, #47 ) ;
#121 = CARTESIAN_POINT ( 'NONE',  ( 0.0000000000000000000, 0.0000000000000000000, -2.000000000000000000 ) ) ;
#122 = CALENDAR_DATE ( 2017, 6, 3 ) ;
#123 = LINE ( 'NONE', #7, #107 ) ;
#124 = ADVANCED_FACE ( 'NONE', ( #75 ), #93, .T. ) ;
#125 = DIRECTION ( 'NONE',  ( -0.0000000000000000000, -0.0000000000000000000, -1.000000000000000000 ) ) ;
#126 = ORIENTED_EDGE ( 'NONE', *, *, #148, .T. ) ;
#127 = EDGE_CURVE ( 'NONE', #103, #94, #20, .T. ) ;
#128 = DIRECTION ( 'NONE',  ( 1.000000000000000000, 0.0000000000000000000, -0.0000000000000000000 ) ) ;
#129 = CARTESIAN_POINT ( 'NONE',  ( -12.50000000000000000, 0.0000000000000000000, -2.000000000000000000 ) ) ;
#130 = DATE_AND_TIME ( #105, #80 ) ;
#131 =( GEOMETRIC_REPRESENTATION_CONTEXT ( 3 ) GLOBAL_UNCERTAINTY_ASSIGNED_CONTEXT ( ( #26 ) ) GLOBAL_UNIT_ASSIGNED_CONTEXT ( ( #43, #95, #81 ) ) REPRESENTATION_CONTEXT ( 'NONE', 'WORKASPACE' ) );
#132 = VERTEX_POINT ( 'NONE', #74 ) ;
#133 = APPROVAL_DATE_TIME ( #146, #14 ) ;
#134 = PERSON_AND_ORGANIZATION ( #108, #12 ) ;
#135 = EDGE_CURVE ( 'NONE', #62, #132, #163, .T. ) ;
#136 = APPROVAL_DATE_TIME ( #110, #83 ) ;
#137 = EDGE_LOOP ( 'NONE', ( #116, #126, #119, #118 ) ) ;
#138 = DIRECTION ( 'NONE',  ( 1.000000000000000000, 0.0000000000000000000, 0.0000000000000000000 ) ) ;
#139 = EDGE_CURVE ( 'NONE', #94, #62, #123, .T. ) ;
#140 = ORIENTED_EDGE ( 'NONE', *, *, #135, .F. ) ;
#141 = DIRECTION ( 'NONE',  ( 1.000000000000000000, 0.0000000000000000000, -0.0000000000000000000 ) ) ;
#142 = APPLICATION_PROTOCOL_DEFINITION ( 'international standard', 'config_control_design', 1994, #39 ) ;
#143 = EDGE_CURVE ( 'NONE', #132, #62, #29, .T. ) ;
#144 = PERSON_AND_ORGANIZATION_ROLE ( 'classification_officer' ) ;
#145 = PERSON_AND_ORGANIZATION ( #108, #12 ) ;
#146 = DATE_AND_TIME ( #113, #92 ) ;
#147 = CLOSED_SHELL ( 'NONE', ( #124, #5, #17, #59 ) ) ;
#148 = EDGE_CURVE ( 'NONE', #103, #132, #8, .T. ) ;
#149 = PERSON_AND_ORGANIZATION_ROLE ( 'design_owner' ) ;
#150 = EDGE_CURVE ( 'NONE', #94, #103, #157, .T. ) ;
#151 = DATE_AND_TIME ( #122, #100 ) ;
#152 = DIRECTION ( 'NONE',  ( 0.0000000000000000000, 0.0000000000000000000, 1.000000000000000000 ) ) ;
#153 = PLANE ( 'NONE',  #25 ) ;
#154 = DIRECTION ( 'NONE',  ( 0.0000000000000000000, 0.0000000000000000000, 1.000000000000000000 ) ) ;
#155 = APPROVAL_DATE_TIME ( #130, #77 ) ;
#156 = FACE_OUTER_BOUND ( 'NONE', #72, .T. ) ;
#157 = CIRCLE ( 'NONE', #73, 12.50000000000000000 ) ;
#158 = PERSON_AND_ORGANIZATION_ROLE ( 'design_supplier' ) ;
#159 = APPROVAL_ROLE ( '' ) ;
#160 = APPROVAL_STATUS ( 'not_yet_approved' ) ;
#161 = APPROVAL_STATUS ( 'not_yet_approved' ) ;
#162 = PERSON_AND_ORGANIZATION ( #108, #12 ) ;
#163 = CIRCLE ( 'NONE', #174, 12.50000000000000000 ) ;
#164 = PLANE ( 'NONE',  #169 ) ;
#165 = AXIS2_PLACEMENT_3D ( 'NONE', #114, #166, #104 ) ;
#166 = DIRECTION ( 'NONE',  ( -0.0000000000000000000, -0.0000000000000000000, -1.000000000000000000 ) ) ;
#167 = MANIFOLD_SOLID_BREP ( 'Boss-Extrude1', #147 ) ;
#168 = PERSON_AND_ORGANIZATION ( #108, #12 ) ;
#169 = AXIS2_PLACEMENT_3D ( 'NONE', #90, #102, #141 ) ;
#170 = APPROVAL_PERSON_ORGANIZATION ( #145, #83, #13 ) ;
#171 = EDGE_LOOP ( 'NONE', ( #140, #115 ) ) ;
#172 = DATE_TIME_ROLE ( 'classification_date' ) ;
#173 = SHAPE_DEFINITION_REPRESENTATION ( #70, #55 ) ;
#174 = AXIS2_PLACEMENT_3D ( 'NONE', #91, #152, #46 ) ;
#175 = DATE_TIME_ROLE ( 'creation_date' ) ;
ENDSEC;
END-ISO-10303-21;
