ISO-10303-21;
HEADER;
FILE_DESCRIPTION (( 'STEP AP203' ),
    '1' );
FILE_NAME ('43368C_36457.step',
    '2017-07-20T12:43:47',
    ( '' ),
    ( '' ),
    'SwSTEP 2.0',
    'SolidWorks 2016',
    '' );
FILE_SCHEMA (( 'CONFIG_CONTROL_DESIGN' ));
ENDSEC;

DATA;
#1 = DIRECTION ( 'NONE',  ( -0.0000000000000000000, -0.0000000000000000000, -1.000000000000000000 ) ) ;
#2 = AXIS2_PLACEMENT_3D ( 'NONE', #134, #167, #6 ) ;
#3 = PLANE ( 'NONE',  #139 ) ;
#4 = CC_DESIGN_SECURITY_CLASSIFICATION ( #130, ( #39 ) ) ;
#5 = APPLICATION_PROTOCOL_DEFINITION ( 'international standard', 'config_control_design', 1994, #154 ) ;
#6 = DIRECTION ( 'NONE',  ( 1.000000000000000000, 0.0000000000000000000, 0.0000000000000000000 ) ) ;
#7 = DIRECTION ( 'NONE',  ( -0.0000000000000000000, -0.0000000000000000000, -1.000000000000000000 ) ) ;
#8 = DIRECTION ( 'NONE',  ( 1.000000000000000000, 0.0000000000000000000, -0.0000000000000000000 ) ) ;
#9 = CIRCLE ( 'NONE', #170, 10.00000000000000000 ) ;
#10 = VERTEX_POINT ( 'NONE', #97 ) ;
#11 = CC_DESIGN_APPROVAL ( #173, ( #166 ) ) ;
#12 = DATE_AND_TIME ( #160, #25 ) ;
#13 = CLOSED_SHELL ( 'NONE', ( #150, #92, #80, #33 ) ) ;
#14 = ORIENTED_EDGE ( 'NONE', *, *, #108, .T. ) ;
#15 = UNCERTAINTY_MEASURE_WITH_UNIT (LENGTH_MEASURE( 1.000000000000000100E-005 ), #82, 'distance_accuracy_value', 'NONE');
#16 = PRODUCT_RELATED_PRODUCT_CATEGORY ( 'detail', '', ( #165 ) ) ;
#17 = APPROVAL_PERSON_ORGANIZATION ( #55, #163, #135 ) ;
#18 = VERTEX_POINT ( 'NONE', #93 ) ;
#19 = PERSON_AND_ORGANIZATION_ROLE ( 'design_supplier' ) ;
#20 = DIRECTION ( 'NONE',  ( 1.000000000000000000, 0.0000000000000000000, 0.0000000000000000000 ) ) ;
#21 = APPLICATION_PROTOCOL_DEFINITION ( 'international standard', 'config_control_design', 1994, #132 ) ;
#22 = PERSON ( 'UNSPECIFIED', 'UNSPECIFIED', 'UNSPECIFIED', ('UNSPECIFIED'), ('UNSPECIFIED'), ('UNSPECIFIED') ) ;
#23 = CC_DESIGN_PERSON_AND_ORGANIZATION_ASSIGNMENT ( #114, #122, ( #166 ) ) ;
#24 = CARTESIAN_POINT ( 'NONE',  ( 0.0000000000000000000, 0.0000000000000000000, 0.0000000000000000000 ) ) ;
#25 = LOCAL_TIME ( 8, 43, 47.00000000000000000, #28 ) ;
#26 = DATE_TIME_ROLE ( 'classification_date' ) ;
#27 =( NAMED_UNIT ( * ) SI_UNIT ( $, .STERADIAN. ) SOLID_ANGLE_UNIT ( ) );
#28 = COORDINATED_UNIVERSAL_TIME_OFFSET ( 5, 0, .BEHIND. ) ;
#29 = PERSON_AND_ORGANIZATION ( #22, #147 ) ;
#30 = FACE_OUTER_BOUND ( 'NONE', #146, .T. ) ;
#31 = CC_DESIGN_DATE_AND_TIME_ASSIGNMENT ( #12, #46, ( #166 ) ) ;
#32 = LOCAL_TIME ( 8, 43, 47.00000000000000000, #100 ) ;
#33 = ADVANCED_FACE ( 'NONE', ( #30 ), #3, .F. ) ;
#34 = ORIENTED_EDGE ( 'NONE', *, *, #90, .F. ) ;
#35 = CARTESIAN_POINT ( 'NONE',  ( 0.0000000000000000000, 0.0000000000000000000, 1.000000000000000000 ) ) ;
#36 = SECURITY_CLASSIFICATION_LEVEL ( 'unclassified' ) ;
#37 = AXIS2_PLACEMENT_3D ( 'NONE', #86, #71, #98 ) ;
#38 = FACE_OUTER_BOUND ( 'NONE', #54, .T. ) ;
#39 = PRODUCT_DEFINITION_FORMATION_WITH_SPECIFIED_SOURCE ( 'ANY', '', #165, .NOT_KNOWN. ) ;
#40 = LOCAL_TIME ( 8, 43, 47.00000000000000000, #58 ) ;
#41 = ORIENTED_EDGE ( 'NONE', *, *, #99, .T. ) ;
#42 = CARTESIAN_POINT ( 'NONE',  ( 0.0000000000000000000, 0.0000000000000000000, -1.000000000000000000 ) ) ;
#43 = PERSON_AND_ORGANIZATION ( #22, #147 ) ;
#44 = EDGE_LOOP ( 'NONE', ( #104, #158 ) ) ;
#45 = MANIFOLD_SOLID_BREP ( 'Boss-Extrude1', #13 ) ;
#46 = DATE_TIME_ROLE ( 'creation_date' ) ;
#47 = DIRECTION ( 'NONE',  ( 1.000000000000000000, 0.0000000000000000000, 0.0000000000000000000 ) ) ;
#48 = APPROVAL ( #61, 'UNSPECIFIED' ) ;
#49 = CARTESIAN_POINT ( 'NONE',  ( 0.0000000000000000000, 0.0000000000000000000, 1.000000000000000000 ) ) ;
#50 = DIRECTION ( 'NONE',  ( 1.000000000000000000, 0.0000000000000000000, 0.0000000000000000000 ) ) ;
#51 = DATE_AND_TIME ( #102, #145 ) ;
#52 = CARTESIAN_POINT ( 'NONE',  ( 10.00000000000000000, 1.224646799147353300E-015, 1.000000000000000000 ) ) ;
#53 = LINE ( 'NONE', #168, #142 ) ;
#54 = EDGE_LOOP ( 'NONE', ( #34, #41, #172, #111 ) ) ;
#55 = PERSON_AND_ORGANIZATION ( #22, #147 ) ;
#56 = DATE_AND_TIME ( #157, #103 ) ;
#57 = CC_DESIGN_APPROVAL ( #48, ( #39 ) ) ;
#58 = COORDINATED_UNIVERSAL_TIME_OFFSET ( 5, 0, .BEHIND. ) ;
#59 = ORIENTED_EDGE ( 'NONE', *, *, #116, .F. ) ;
#60 = DIRECTION ( 'NONE',  ( -1.000000000000000000, 0.0000000000000000000, 0.0000000000000000000 ) ) ;
#61 = APPROVAL_STATUS ( 'not_yet_approved' ) ;
#62 = CARTESIAN_POINT ( 'NONE',  ( 0.0000000000000000000, 0.0000000000000000000, 1.000000000000000000 ) ) ;
#63 = PERSON_AND_ORGANIZATION ( #22, #147 ) ;
#64 = APPROVAL_STATUS ( 'not_yet_approved' ) ;
#65 = SHAPE_DEFINITION_REPRESENTATION ( #76, #149 ) ;
#66 = DIRECTION ( 'NONE',  ( -0.0000000000000000000, -0.0000000000000000000, -1.000000000000000000 ) ) ;
#67 = PERSON_AND_ORGANIZATION ( #22, #147 ) ;
#68 = CIRCLE ( 'NONE', #37, 10.00000000000000000 ) ;
#69 = CARTESIAN_POINT ( 'NONE',  ( 0.0000000000000000000, 0.0000000000000000000, -1.000000000000000000 ) ) ;
#70 = DIRECTION ( 'NONE',  ( -1.000000000000000000, 0.0000000000000000000, 0.0000000000000000000 ) ) ;
#71 = DIRECTION ( 'NONE',  ( 0.0000000000000000000, 0.0000000000000000000, 1.000000000000000000 ) ) ;
#72 = APPROVAL_DATE_TIME ( #56, #173 ) ;
#73 = ORIENTED_EDGE ( 'NONE', *, *, #81, .F. ) ;
#74 = DATE_AND_TIME ( #164, #40 ) ;
#75 = EDGE_LOOP ( 'NONE', ( #169, #59, #14, #95 ) ) ;
#76 = PRODUCT_DEFINITION_SHAPE ( 'NONE', 'NONE',  #166 ) ;
#77 = PERSON_AND_ORGANIZATION ( #22, #147 ) ;
#78 = COORDINATED_UNIVERSAL_TIME_OFFSET ( 5, 0, .BEHIND. ) ;
#79 = ORIENTED_EDGE ( 'NONE', *, *, #127, .F. ) ;
#80 = ADVANCED_FACE ( 'NONE', ( #174 ), #84, .T. ) ;
#81 = EDGE_CURVE ( 'NONE', #18, #129, #161, .T. ) ;
#82 =( LENGTH_UNIT ( ) NAMED_UNIT ( * ) SI_UNIT ( .MILLI., .METRE. ) );
#83 = CALENDAR_DATE ( 2017, 20, 7 ) ;
#84 = PLANE ( 'NONE',  #162 ) ;
#85 = CARTESIAN_POINT ( 'NONE',  ( 0.0000000000000000000, 0.0000000000000000000, 1.000000000000000000 ) ) ;
#86 = CARTESIAN_POINT ( 'NONE',  ( 0.0000000000000000000, 0.0000000000000000000, 1.000000000000000000 ) ) ;
#87 = APPROVAL_PERSON_ORGANIZATION ( #43, #173, #96 ) ;
#88 = APPROVAL_PERSON_ORGANIZATION ( #63, #48, #94 ) ;
#89 = CYLINDRICAL_SURFACE ( 'NONE', #115, 10.00000000000000000 ) ;
#90 = EDGE_CURVE ( 'NONE', #143, #10, #68, .T. ) ;
#91 = AXIS2_PLACEMENT_3D ( 'NONE', #62, #123, #47 ) ;
#92 = ADVANCED_FACE ( 'NONE', ( #138 ), #101, .T. ) ;
#93 = CARTESIAN_POINT ( 'NONE',  ( 10.00000000000000000, 1.224646799147353300E-015, -1.000000000000000000 ) ) ;
#94 = APPROVAL_ROLE ( '' ) ;
#95 = ORIENTED_EDGE ( 'NONE', *, *, #127, .T. ) ;
#96 = APPROVAL_ROLE ( '' ) ;
#97 = CARTESIAN_POINT ( 'NONE',  ( -10.00000000000000000, 0.0000000000000000000, 1.000000000000000000 ) ) ;
#98 = DIRECTION ( 'NONE',  ( 1.000000000000000000, 0.0000000000000000000, 0.0000000000000000000 ) ) ;
#99 = EDGE_CURVE ( 'NONE', #143, #18, #131, .T. ) ;
#100 = COORDINATED_UNIVERSAL_TIME_OFFSET ( 5, 0, .BEHIND. ) ;
#101 = CYLINDRICAL_SURFACE ( 'NONE', #113, 10.00000000000000000 ) ;
#102 = CALENDAR_DATE ( 2017, 20, 7 ) ;
#103 = LOCAL_TIME ( 8, 43, 47.00000000000000000, #78 ) ;
#104 = ORIENTED_EDGE ( 'NONE', *, *, #116, .T. ) ;
#105 = DIRECTION ( 'NONE',  ( 0.0000000000000000000, 0.0000000000000000000, 1.000000000000000000 ) ) ;
#106 = APPROVAL_STATUS ( 'not_yet_approved' ) ;
#107 =( GEOMETRIC_REPRESENTATION_CONTEXT ( 3 ) GLOBAL_UNCERTAINTY_ASSIGNED_CONTEXT ( ( #15 ) ) GLOBAL_UNIT_ASSIGNED_CONTEXT ( ( #82, #156, #27 ) ) REPRESENTATION_CONTEXT ( 'NONE', 'WORKASPACE' ) );
#108 = EDGE_CURVE ( 'NONE', #10, #129, #53, .T. ) ;
#109 = DIRECTION ( 'NONE',  ( 0.0000000000000000000, 0.0000000000000000000, 1.000000000000000000 ) ) ;
#110 = VECTOR ( 'NONE', #66, 1000.000000000000000 ) ;
#111 = ORIENTED_EDGE ( 'NONE', *, *, #108, .F. ) ;
#112 = CC_DESIGN_PERSON_AND_ORGANIZATION_ASSIGNMENT ( #125, #175, ( #39 ) ) ;
#113 = AXIS2_PLACEMENT_3D ( 'NONE', #49, #7, #70 ) ;
#114 = PERSON_AND_ORGANIZATION ( #22, #147 ) ;
#115 = AXIS2_PLACEMENT_3D ( 'NONE', #35, #133, #60 ) ;
#116 = EDGE_CURVE ( 'NONE', #10, #143, #119, .T. ) ;
#117 = DESIGN_CONTEXT ( 'detailed design', #132, 'design' ) ;
#118 = APPROVAL_DATE_TIME ( #51, #163 ) ;
#119 = CIRCLE ( 'NONE', #91, 10.00000000000000000 ) ;
#120 = DIRECTION ( 'NONE',  ( 0.0000000000000000000, 0.0000000000000000000, 1.000000000000000000 ) ) ;
#121 = CARTESIAN_POINT ( 'NONE',  ( -10.00000000000000000, 0.0000000000000000000, -1.000000000000000000 ) ) ;
#122 = PERSON_AND_ORGANIZATION_ROLE ( 'creator' ) ;
#123 = DIRECTION ( 'NONE',  ( 0.0000000000000000000, 0.0000000000000000000, 1.000000000000000000 ) ) ;
#124 = CC_DESIGN_PERSON_AND_ORGANIZATION_ASSIGNMENT ( #67, #19, ( #39 ) ) ;
#125 = PERSON_AND_ORGANIZATION ( #22, #147 ) ;
#126 = PERSON_AND_ORGANIZATION_ROLE ( 'classification_officer' ) ;
#127 = EDGE_CURVE ( 'NONE', #129, #18, #9, .T. ) ;
#128 = APPROVAL_DATE_TIME ( #74, #48 ) ;
#129 = VERTEX_POINT ( 'NONE', #121 ) ;
#130 = SECURITY_CLASSIFICATION ( '', '', #36 ) ;
#131 = LINE ( 'NONE', #52, #110 ) ;
#132 = APPLICATION_CONTEXT ( 'configuration controlled 3d designs of mechanical parts and assemblies' ) ;
#133 = DIRECTION ( 'NONE',  ( -0.0000000000000000000, -0.0000000000000000000, -1.000000000000000000 ) ) ;
#134 = CARTESIAN_POINT ( 'NONE',  ( 0.0000000000000000000, 0.0000000000000000000, -1.000000000000000000 ) ) ;
#135 = APPROVAL_ROLE ( '' ) ;
#136 = MECHANICAL_CONTEXT ( 'NONE', #154, 'mechanical' ) ;
#137 = DIRECTION ( 'NONE',  ( 0.0000000000000000000, 0.0000000000000000000, 1.000000000000000000 ) ) ;
#138 = FACE_OUTER_BOUND ( 'NONE', #75, .T. ) ;
#139 = AXIS2_PLACEMENT_3D ( 'NONE', #42, #120, #148 ) ;
#140 = CC_DESIGN_PERSON_AND_ORGANIZATION_ASSIGNMENT ( #77, #126, ( #130 ) ) ;
#141 = DATE_AND_TIME ( #83, #32 ) ;
#142 = VECTOR ( 'NONE', #1, 1000.000000000000000 ) ;
#143 = VERTEX_POINT ( 'NONE', #151 ) ;
#144 = AXIS2_PLACEMENT_3D ( 'NONE', #24, #109, #50 ) ;
#145 = LOCAL_TIME ( 8, 43, 47.00000000000000000, #155 ) ;
#146 = EDGE_LOOP ( 'NONE', ( #79, #73 ) ) ;
#147 = ORGANIZATION ( 'UNSPECIFIED', 'UNSPECIFIED', '' ) ;
#148 = DIRECTION ( 'NONE',  ( 1.000000000000000000, 0.0000000000000000000, -0.0000000000000000000 ) ) ;
#149 = ADVANCED_BREP_SHAPE_REPRESENTATION ( '43368C_36457', ( #45, #144 ), #107 ) ;
#150 = ADVANCED_FACE ( 'NONE', ( #38 ), #89, .T. ) ;
#151 = CARTESIAN_POINT ( 'NONE',  ( 10.00000000000000000, 1.224646799147353300E-015, 1.000000000000000000 ) ) ;
#152 = PERSON_AND_ORGANIZATION_ROLE ( 'design_owner' ) ;
#153 = CC_DESIGN_DATE_AND_TIME_ASSIGNMENT ( #141, #26, ( #130 ) ) ;
#154 = APPLICATION_CONTEXT ( 'configuration controlled 3d designs of mechanical parts and assemblies' ) ;
#155 = COORDINATED_UNIVERSAL_TIME_OFFSET ( 5, 0, .BEHIND. ) ;
#156 =( NAMED_UNIT ( * ) PLANE_ANGLE_UNIT ( ) SI_UNIT ( $, .RADIAN. ) );
#157 = CALENDAR_DATE ( 2017, 20, 7 ) ;
#158 = ORIENTED_EDGE ( 'NONE', *, *, #90, .T. ) ;
#159 = CC_DESIGN_PERSON_AND_ORGANIZATION_ASSIGNMENT ( #29, #152, ( #165 ) ) ;
#160 = CALENDAR_DATE ( 2017, 20, 7 ) ;
#161 = CIRCLE ( 'NONE', #2, 10.00000000000000000 ) ;
#162 = AXIS2_PLACEMENT_3D ( 'NONE', #85, #137, #8 ) ;
#163 = APPROVAL ( #64, 'UNSPECIFIED' ) ;
#164 = CALENDAR_DATE ( 2017, 20, 7 ) ;
#165 = PRODUCT ( '43368C_36457', '43368C_36457', '', ( #136 ) ) ;
#166 = PRODUCT_DEFINITION ( 'UNKNOWN', '', #39, #117 ) ;
#167 = DIRECTION ( 'NONE',  ( 0.0000000000000000000, 0.0000000000000000000, 1.000000000000000000 ) ) ;
#168 = CARTESIAN_POINT ( 'NONE',  ( -10.00000000000000000, 0.0000000000000000000, 1.000000000000000000 ) ) ;
#169 = ORIENTED_EDGE ( 'NONE', *, *, #99, .F. ) ;
#170 = AXIS2_PLACEMENT_3D ( 'NONE', #69, #105, #20 ) ;
#171 = CC_DESIGN_APPROVAL ( #163, ( #130 ) ) ;
#172 = ORIENTED_EDGE ( 'NONE', *, *, #81, .T. ) ;
#173 = APPROVAL ( #106, 'UNSPECIFIED' ) ;
#174 = FACE_OUTER_BOUND ( 'NONE', #44, .T. ) ;
#175 = PERSON_AND_ORGANIZATION_ROLE ( 'creator' ) ;
ENDSEC;
END-ISO-10303-21;
