ISO-10303-21;
HEADER;
FILE_DESCRIPTION (( 'STEP AP203' ),
    '1' );
FILE_NAME ('Web Model 88428.STEP',
    '2017-02-01T16:21:47',
    ( '' ),
    ( '' ),
    'SwSTEP 2.0',
    'SolidWorks 2016',
    '' );
FILE_SCHEMA (( 'CONFIG_CONTROL_DESIGN' ));
ENDSEC;

DATA;
#1 = CYLINDRICAL_SURFACE ( 'NONE', #39, 7.500000000000000000 ) ;
#2 = DIRECTION ( 'NONE',  ( -0.0000000000000000000, -0.0000000000000000000, 1.000000000000000000 ) ) ;
#3 = APPROVAL_PERSON_ORGANIZATION ( #11, #86, #144 ) ;
#4 = APPLICATION_PROTOCOL_DEFINITION ( 'international standard', 'config_control_design', 1994, #118 ) ;
#5 = DIRECTION ( 'NONE',  ( 1.000000000000000000, 0.0000000000000000000, 0.0000000000000000000 ) ) ;
#6 = CARTESIAN_POINT ( 'NONE',  ( 0.0000000000000000000, 0.0000000000000000000, 0.0000000000000000000 ) ) ;
#7 = ORIENTED_EDGE ( 'NONE', *, *, #70, .F. ) ;
#8 = APPROVAL ( #132, 'UNSPECIFIED' ) ;
#9 = ORGANIZATION ( 'UNSPECIFIED', 'UNSPECIFIED', '' ) ;
#10 = LOCAL_TIME ( 11, 21, 47.00000000000000000, #50 ) ;
#11 = PERSON_AND_ORGANIZATION ( #99, #9 ) ;
#12 = AXIS2_PLACEMENT_3D ( 'NONE', #58, #60, #5 ) ;
#13 = ADVANCED_BREP_SHAPE_REPRESENTATION ( 'Web Model 88428', ( #85, #122 ), #23 ) ;
#14 = CARTESIAN_POINT ( 'NONE',  ( 0.0000000000000000000, 0.0000000000000000000, 0.0000000000000000000 ) ) ;
#15 = DIRECTION ( 'NONE',  ( 0.0000000000000000000, 0.0000000000000000000, -1.000000000000000000 ) ) ;
#16 = DIRECTION ( 'NONE',  ( 1.000000000000000000, 0.0000000000000000000, 0.0000000000000000000 ) ) ;
#17 = APPROVAL_DATE_TIME ( #114, #175 ) ;
#18 = CARTESIAN_POINT ( 'NONE',  ( 0.0000000000000000000, 0.0000000000000000000, -2.000000000000000000 ) ) ;
#19 = ADVANCED_FACE ( 'NONE', ( #28 ), #1, .T. ) ;
#20 = PERSON_AND_ORGANIZATION ( #99, #9 ) ;
#21 = APPROVAL_ROLE ( '' ) ;
#22 = DIRECTION ( 'NONE',  ( 1.000000000000000000, 0.0000000000000000000, 0.0000000000000000000 ) ) ;
#23 =( GEOMETRIC_REPRESENTATION_CONTEXT ( 3 ) GLOBAL_UNCERTAINTY_ASSIGNED_CONTEXT ( ( #172 ) ) GLOBAL_UNIT_ASSIGNED_CONTEXT ( ( #101, #80, #55 ) ) REPRESENTATION_CONTEXT ( 'NONE', 'WORKASPACE' ) );
#24 = DIRECTION ( 'NONE',  ( 1.000000000000000000, 0.0000000000000000000, 0.0000000000000000000 ) ) ;
#25 = PERSON_AND_ORGANIZATION ( #99, #9 ) ;
#26 = APPROVAL_PERSON_ORGANIZATION ( #57, #175, #21 ) ;
#27 = EDGE_LOOP ( 'NONE', ( #173, #109 ) ) ;
#28 = FACE_OUTER_BOUND ( 'NONE', #44, .T. ) ;
#29 = CC_DESIGN_APPROVAL ( #8, ( #92 ) ) ;
#30 = CARTESIAN_POINT ( 'NONE',  ( 7.500000000000000000, 0.0000000000000000000, -2.000000000000000000 ) ) ;
#31 = LOCAL_TIME ( 11, 21, 47.00000000000000000, #106 ) ;
#32 = CIRCLE ( 'NONE', #12, 7.500000000000000000 ) ;
#33 = CARTESIAN_POINT ( 'NONE',  ( 7.500000000000000000, 0.0000000000000000000, 0.0000000000000000000 ) ) ;
#34 = ADVANCED_FACE ( 'NONE', ( #135 ), #68, .F. ) ;
#35 = LOCAL_TIME ( 11, 21, 47.00000000000000000, #148 ) ;
#36 = CARTESIAN_POINT ( 'NONE',  ( 7.500000000000000000, 0.0000000000000000000, 0.0000000000000000000 ) ) ;
#37 = PERSON_AND_ORGANIZATION_ROLE ( 'creator' ) ;
#38 = CARTESIAN_POINT ( 'NONE',  ( 0.0000000000000000000, 0.0000000000000000000, 0.0000000000000000000 ) ) ;
#39 = AXIS2_PLACEMENT_3D ( 'NONE', #14, #140, #112 ) ;
#40 = VECTOR ( 'NONE', #147, 1000.000000000000000 ) ;
#41 = DATE_AND_TIME ( #160, #170 ) ;
#42 = ORIENTED_EDGE ( 'NONE', *, *, #121, .T. ) ;
#43 = PRODUCT ( 'Web Model 88428', 'Web Model 88428', '', ( #115 ) ) ;
#44 = EDGE_LOOP ( 'NONE', ( #156, #42, #133, #74 ) ) ;
#45 = CARTESIAN_POINT ( 'NONE',  ( 0.0000000000000000000, 7.500000000000000000, -2.000000000000000900 ) ) ;
#46 = CC_DESIGN_PERSON_AND_ORGANIZATION_ASSIGNMENT ( #107, #102, ( #138 ) ) ;
#47 = DIRECTION ( 'NONE',  ( 1.000000000000000000, 0.0000000000000000000, 0.0000000000000000000 ) ) ;
#48 = EDGE_LOOP ( 'NONE', ( #62, #169 ) ) ;
#49 = APPLICATION_CONTEXT ( 'configuration controlled 3d designs of mechanical parts and assemblies' ) ;
#50 = COORDINATED_UNIVERSAL_TIME_OFFSET ( 5, 0, .BEHIND. ) ;
#51 = CALENDAR_DATE ( 2017, 1, 2 ) ;
#52 = ORIENTED_EDGE ( 'NONE', *, *, #151, .T. ) ;
#53 = CYLINDRICAL_SURFACE ( 'NONE', #59, 7.500000000000000000 ) ;
#54 = DIRECTION ( 'NONE',  ( -0.0000000000000000000, -0.0000000000000000000, 1.000000000000000000 ) ) ;
#55 =( NAMED_UNIT ( * ) SI_UNIT ( $, .STERADIAN. ) SOLID_ANGLE_UNIT ( ) );
#56 = AXIS2_PLACEMENT_3D ( 'NONE', #45, #141, #162 ) ;
#57 = PERSON_AND_ORGANIZATION ( #99, #9 ) ;
#58 = CARTESIAN_POINT ( 'NONE',  ( 0.0000000000000000000, 0.0000000000000000000, -2.000000000000000000 ) ) ;
#59 = AXIS2_PLACEMENT_3D ( 'NONE', #38, #166, #24 ) ;
#60 = DIRECTION ( 'NONE',  ( -0.0000000000000000000, -0.0000000000000000000, 1.000000000000000000 ) ) ;
#61 = VERTEX_POINT ( 'NONE', #30 ) ;
#62 = ORIENTED_EDGE ( 'NONE', *, *, #125, .F. ) ;
#63 = DATE_AND_TIME ( #142, #10 ) ;
#64 = VECTOR ( 'NONE', #54, 1000.000000000000000 ) ;
#65 = AXIS2_PLACEMENT_3D ( 'NONE', #18, #150, #47 ) ;
#66 = COORDINATED_UNIVERSAL_TIME_OFFSET ( 5, 0, .BEHIND. ) ;
#67 = FACE_OUTER_BOUND ( 'NONE', #168, .T. ) ;
#68 = PLANE ( 'NONE',  #84 ) ;
#69 = CARTESIAN_POINT ( 'NONE',  ( 0.0000000000000000000, 0.0000000000000000000, 0.0000000000000000000 ) ) ;
#70 = EDGE_CURVE ( 'NONE', #95, #126, #159, .T. ) ;
#71 = SECURITY_CLASSIFICATION_LEVEL ( 'unclassified' ) ;
#72 = CLOSED_SHELL ( 'NONE', ( #19, #34, #145, #78 ) ) ;
#73 = APPROVAL_ROLE ( '' ) ;
#74 = ORIENTED_EDGE ( 'NONE', *, *, #151, .F. ) ;
#75 = CC_DESIGN_APPROVAL ( #175, ( #138 ) ) ;
#76 = PLANE ( 'NONE',  #56 ) ;
#77 = CARTESIAN_POINT ( 'NONE',  ( -7.500000000000000000, 9.184850993605147900E-016, -2.000000000000000000 ) ) ;
#78 = ADVANCED_FACE ( 'NONE', ( #119 ), #76, .F. ) ;
#79 = PERSON_AND_ORGANIZATION_ROLE ( 'design_supplier' ) ;
#80 =( NAMED_UNIT ( * ) PLANE_ANGLE_UNIT ( ) SI_UNIT ( $, .RADIAN. ) );
#81 = CC_DESIGN_PERSON_AND_ORGANIZATION_ASSIGNMENT ( #20, #131, ( #43 ) ) ;
#82 = PRODUCT_DEFINITION_SHAPE ( 'NONE', 'NONE',  #138 ) ;
#83 = ORIENTED_EDGE ( 'NONE', *, *, #121, .F. ) ;
#84 = AXIS2_PLACEMENT_3D ( 'NONE', #88, #15, #98 ) ;
#85 = MANIFOLD_SOLID_BREP ( 'Revolve1', #72 ) ;
#86 = APPROVAL ( #149, 'UNSPECIFIED' ) ;
#87 = APPROVAL_DATE_TIME ( #63, #8 ) ;
#88 = CARTESIAN_POINT ( 'NONE',  ( 0.0000000000000000000, 0.0000000000000000000, 0.0000000000000000000 ) ) ;
#89 = CIRCLE ( 'NONE', #65, 7.500000000000000000 ) ;
#90 = CARTESIAN_POINT ( 'NONE',  ( -7.500000000000000000, 9.184850993605147900E-016, 0.0000000000000000000 ) ) ;
#91 = DIRECTION ( 'NONE',  ( -0.0000000000000000000, -0.0000000000000000000, 1.000000000000000000 ) ) ;
#92 = SECURITY_CLASSIFICATION ( '', '', #71 ) ;
#93 = DIRECTION ( 'NONE',  ( 0.0000000000000000000, 0.0000000000000000000, 1.000000000000000000 ) ) ;
#94 = DIRECTION ( 'NONE',  ( 1.000000000000000000, 0.0000000000000000000, 0.0000000000000000000 ) ) ;
#95 = VERTEX_POINT ( 'NONE', #100 ) ;
#96 = LINE ( 'NONE', #90, #64 ) ;
#97 = COORDINATED_UNIVERSAL_TIME_OFFSET ( 5, 0, .BEHIND. ) ;
#98 = DIRECTION ( 'NONE',  ( -1.000000000000000000, 0.0000000000000000000, -0.0000000000000000000 ) ) ;
#99 = PERSON ( 'UNSPECIFIED', 'UNSPECIFIED', 'UNSPECIFIED', ('UNSPECIFIED'), ('UNSPECIFIED'), ('UNSPECIFIED') ) ;
#100 = CARTESIAN_POINT ( 'NONE',  ( -7.500000000000000000, 9.184850993605147900E-016, 0.0000000000000000000 ) ) ;
#101 =( LENGTH_UNIT ( ) NAMED_UNIT ( * ) SI_UNIT ( .MILLI., .METRE. ) );
#102 = PERSON_AND_ORGANIZATION_ROLE ( 'creator' ) ;
#103 = CC_DESIGN_PERSON_AND_ORGANIZATION_ASSIGNMENT ( #120, #37, ( #153 ) ) ;
#104 = AXIS2_PLACEMENT_3D ( 'NONE', #110, #2, #16 ) ;
#105 = PRODUCT_RELATED_PRODUCT_CATEGORY ( 'detail', '', ( #43 ) ) ;
#106 = COORDINATED_UNIVERSAL_TIME_OFFSET ( 5, 0, .BEHIND. ) ;
#107 = PERSON_AND_ORGANIZATION ( #99, #9 ) ;
#108 = CALENDAR_DATE ( 2017, 1, 2 ) ;
#109 = ORIENTED_EDGE ( 'NONE', *, *, #70, .T. ) ;
#110 = CARTESIAN_POINT ( 'NONE',  ( 0.0000000000000000000, 0.0000000000000000000, 0.0000000000000000000 ) ) ;
#111 = CC_DESIGN_PERSON_AND_ORGANIZATION_ASSIGNMENT ( #25, #79, ( #153 ) ) ;
#112 = DIRECTION ( 'NONE',  ( 1.000000000000000000, 0.0000000000000000000, 0.0000000000000000000 ) ) ;
#113 = CALENDAR_DATE ( 2017, 1, 2 ) ;
#114 = DATE_AND_TIME ( #108, #155 ) ;
#115 = MECHANICAL_CONTEXT ( 'NONE', #118, 'mechanical' ) ;
#116 = CC_DESIGN_APPROVAL ( #86, ( #153 ) ) ;
#117 = DATE_TIME_ROLE ( 'classification_date' ) ;
#118 = APPLICATION_CONTEXT ( 'configuration controlled 3d designs of mechanical parts and assemblies' ) ;
#119 = FACE_OUTER_BOUND ( 'NONE', #48, .T. ) ;
#120 = PERSON_AND_ORGANIZATION ( #99, #9 ) ;
#121 = EDGE_CURVE ( 'NONE', #136, #95, #96, .T. ) ;
#122 = AXIS2_PLACEMENT_3D ( 'NONE', #6, #93, #22 ) ;
#123 = CC_DESIGN_SECURITY_CLASSIFICATION ( #92, ( #153 ) ) ;
#124 = ORIENTED_EDGE ( 'NONE', *, *, #139, .T. ) ;
#125 = EDGE_CURVE ( 'NONE', #61, #136, #32, .T. ) ;
#126 = VERTEX_POINT ( 'NONE', #33 ) ;
#127 = PERSON_AND_ORGANIZATION ( #99, #9 ) ;
#128 = LINE ( 'NONE', #36, #40 ) ;
#129 = DATE_AND_TIME ( #51, #35 ) ;
#130 = APPROVAL_STATUS ( 'not_yet_approved' ) ;
#131 = PERSON_AND_ORGANIZATION_ROLE ( 'design_owner' ) ;
#132 = APPROVAL_STATUS ( 'not_yet_approved' ) ;
#133 = ORIENTED_EDGE ( 'NONE', *, *, #143, .F. ) ;
#134 = APPROVAL_PERSON_ORGANIZATION ( #127, #8, #73 ) ;
#135 = FACE_OUTER_BOUND ( 'NONE', #27, .T. ) ;
#136 = VERTEX_POINT ( 'NONE', #77 ) ;
#137 = CC_DESIGN_DATE_AND_TIME_ASSIGNMENT ( #129, #165, ( #138 ) ) ;
#138 = PRODUCT_DEFINITION ( 'UNKNOWN', '', #153, #171 ) ;
#139 = EDGE_CURVE ( 'NONE', #136, #61, #89, .T. ) ;
#140 = DIRECTION ( 'NONE',  ( -0.0000000000000000000, -0.0000000000000000000, 1.000000000000000000 ) ) ;
#141 = DIRECTION ( 'NONE',  ( 0.0000000000000000000, -0.0000000000000000000, 1.000000000000000000 ) ) ;
#142 = CALENDAR_DATE ( 2017, 1, 2 ) ;
#143 = EDGE_CURVE ( 'NONE', #126, #95, #161, .T. ) ;
#144 = APPROVAL_ROLE ( '' ) ;
#145 = ADVANCED_FACE ( 'NONE', ( #67 ), #53, .T. ) ;
#146 = APPLICATION_PROTOCOL_DEFINITION ( 'international standard', 'config_control_design', 1994, #49 ) ;
#147 = DIRECTION ( 'NONE',  ( -0.0000000000000000000, -0.0000000000000000000, 1.000000000000000000 ) ) ;
#148 = COORDINATED_UNIVERSAL_TIME_OFFSET ( 5, 0, .BEHIND. ) ;
#149 = APPROVAL_STATUS ( 'not_yet_approved' ) ;
#150 = DIRECTION ( 'NONE',  ( -0.0000000000000000000, -0.0000000000000000000, 1.000000000000000000 ) ) ;
#151 = EDGE_CURVE ( 'NONE', #61, #126, #128, .T. ) ;
#152 = APPROVAL_DATE_TIME ( #41, #86 ) ;
#153 = PRODUCT_DEFINITION_FORMATION_WITH_SPECIFIED_SOURCE ( 'ANY', '', #43, .NOT_KNOWN. ) ;
#154 = AXIS2_PLACEMENT_3D ( 'NONE', #69, #91, #94 ) ;
#155 = LOCAL_TIME ( 11, 21, 47.00000000000000000, #97 ) ;
#156 = ORIENTED_EDGE ( 'NONE', *, *, #125, .T. ) ;
#157 = PERSON_AND_ORGANIZATION ( #99, #9 ) ;
#158 = SHAPE_DEFINITION_REPRESENTATION ( #82, #13 ) ;
#159 = CIRCLE ( 'NONE', #104, 7.500000000000000000 ) ;
#160 = CALENDAR_DATE ( 2017, 1, 2 ) ;
#161 = CIRCLE ( 'NONE', #154, 7.500000000000000000 ) ;
#162 = DIRECTION ( 'NONE',  ( 1.000000000000000000, 0.0000000000000000000, 0.0000000000000000000 ) ) ;
#163 = CC_DESIGN_PERSON_AND_ORGANIZATION_ASSIGNMENT ( #157, #167, ( #92 ) ) ;
#164 = CC_DESIGN_DATE_AND_TIME_ASSIGNMENT ( #174, #117, ( #92 ) ) ;
#165 = DATE_TIME_ROLE ( 'creation_date' ) ;
#166 = DIRECTION ( 'NONE',  ( -0.0000000000000000000, -0.0000000000000000000, 1.000000000000000000 ) ) ;
#167 = PERSON_AND_ORGANIZATION_ROLE ( 'classification_officer' ) ;
#168 = EDGE_LOOP ( 'NONE', ( #83, #124, #52, #7 ) ) ;
#169 = ORIENTED_EDGE ( 'NONE', *, *, #139, .F. ) ;
#170 = LOCAL_TIME ( 11, 21, 47.00000000000000000, #66 ) ;
#171 = DESIGN_CONTEXT ( 'detailed design', #49, 'design' ) ;
#172 = UNCERTAINTY_MEASURE_WITH_UNIT (LENGTH_MEASURE( 1.000000000000000100E-005 ), #101, 'distance_accuracy_value', 'NONE');
#173 = ORIENTED_EDGE ( 'NONE', *, *, #143, .T. ) ;
#174 = DATE_AND_TIME ( #113, #31 ) ;
#175 = APPROVAL ( #130, 'UNSPECIFIED' ) ;
ENDSEC;
END-ISO-10303-21;
