ISO-10303-21;
HEADER;
FILE_DESCRIPTION (( 'STEP AP214' ),
    '1' );
FILE_NAME ('3268-E0W.STEP',
    '2009-12-21T16:56:33',
    ( ' ' ),
    ( ' ' ),
    'SwSTEP 2.0',
    'SolidWorks 2009',
    '' );
FILE_SCHEMA (( 'AUTOMOTIVE_DESIGN' ));
ENDSEC;

DATA;
#1 = EDGE_CURVE ( 'NONE', #30, #17, #124, .T. ) ;
#2 = ORIENTED_EDGE ( 'NONE', *, *, #1, .T. ) ;
#3 = EDGE_CURVE ( 'NONE', #26, #49, #161, .T. ) ;
#4 = ORIENTED_EDGE ( 'NONE', *, *, #3, .F. ) ;
#5 = ADVANCED_FACE ( 'NONE', ( #193 ), #102, .T. ) ;
#6 = ORIENTED_EDGE ( 'NONE', *, *, #13, .F. ) ;
#7 = ORIENTED_EDGE ( 'NONE', *, *, #32, .T. ) ;
#8 = ORIENTED_EDGE ( 'NONE', *, *, #29, .F. ) ;
#9 = ORIENTED_EDGE ( 'NONE', *, *, #35, .F. ) ;
#10 = EDGE_LOOP ( 'NONE', ( #46, #36 ) ) ;
#11 = ORIENTED_EDGE ( 'NONE', *, *, #13, .T. ) ;
#12 = ADVANCED_FACE ( 'NONE', ( #104 ), #155, .T. ) ;
#13 = EDGE_CURVE ( 'NONE', #17, #39, #127, .T. ) ;
#14 = EDGE_LOOP ( 'NONE', ( #6, #38, #34, #47 ) ) ;
#15 = ORIENTED_EDGE ( 'NONE', *, *, #3, .T. ) ;
#16 = ORIENTED_EDGE ( 'NONE', *, *, #40, .F. ) ;
#17 = VERTEX_POINT ( 'NONE', #99 ) ;
#18 = EDGE_CURVE ( 'NONE', #49, #33, #98, .T. ) ;
#19 = ORIENTED_EDGE ( 'NONE', *, *, #20, .T. ) ;
#20 = EDGE_CURVE ( 'NONE', #27, #26, #174, .T. ) ;
#21 = MANIFOLD_SOLID_BREP ( 'NONE', #37 ) ;
#22 = ADVANCED_FACE ( 'NONE', ( #88 ), #94, .T. ) ;
#23 = EDGE_LOOP ( 'NONE', ( #24, #28, #31, #48, #4 ) ) ;
#24 = ORIENTED_EDGE ( 'NONE', *, *, #25, .T. ) ;
#25 = EDGE_CURVE ( 'NONE', #26, #27, #93, .T. ) ;
#26 = VERTEX_POINT ( 'NONE', #114 ) ;
#27 = VERTEX_POINT ( 'NONE', #113 ) ;
#28 = ORIENTED_EDGE ( 'NONE', *, *, #29, .T. ) ;
#29 = EDGE_CURVE ( 'NONE', #27, #30, #112, .T. ) ;
#30 = VERTEX_POINT ( 'NONE', #108 ) ;
#31 = ORIENTED_EDGE ( 'NONE', *, *, #32, .F. ) ;
#32 = EDGE_CURVE ( 'NONE', #33, #30, #138, .T. ) ;
#33 = VERTEX_POINT ( 'NONE', #133 ) ;
#34 = ORIENTED_EDGE ( 'NONE', *, *, #18, .T. ) ;
#35 = EDGE_CURVE ( 'NONE', #17, #49, #132, .T. ) ;
#36 = ORIENTED_EDGE ( 'NONE', *, *, #20, .F. ) ;
#37 = CLOSED_SHELL ( 'NONE', ( #22, #44, #5, #12, #42 ) ) ;
#38 = ORIENTED_EDGE ( 'NONE', *, *, #35, .T. ) ;
#39 = VERTEX_POINT ( 'NONE', #74 ) ;
#40 = EDGE_CURVE ( 'NONE', #33, #39, #72, .T. ) ;
#41 = ORIENTED_EDGE ( 'NONE', *, *, #1, .F. ) ;
#42 = ADVANCED_FACE ( 'NONE', ( #67 ), #211, .F. ) ;
#43 = EDGE_LOOP ( 'NONE', ( #7, #2, #11, #16 ) ) ;
#44 = ADVANCED_FACE ( 'NONE', ( #209 ), #258, .T. ) ;
#45 = EDGE_LOOP ( 'NONE', ( #8, #19, #15, #9, #41 ) ) ;
#46 = ORIENTED_EDGE ( 'NONE', *, *, #25, .F. ) ;
#47 = ORIENTED_EDGE ( 'NONE', *, *, #40, .T. ) ;
#48 = ORIENTED_EDGE ( 'NONE', *, *, #18, .F. ) ;
#49 = VERTEX_POINT ( 'NONE', #240 ) ;
#50 =( GEOMETRIC_REPRESENTATION_CONTEXT ( 3 ) GLOBAL_UNCERTAINTY_ASSIGNED_CONTEXT ( ( #51 ) ) GLOBAL_UNIT_ASSIGNED_CONTEXT ( ( #178, #177, #176 ) ) REPRESENTATION_CONTEXT ( 'NONE', 'WORKASPACE' ) );
#51 = UNCERTAINTY_MEASURE_WITH_UNIT (LENGTH_MEASURE( 1.000000000000000100E-005 ), #178, 'distance_accuracy_value', 'NONE');
#52 = UNCERTAINTY_MEASURE_WITH_UNIT (LENGTH_MEASURE( 1.000000000000000100E-005 ), #79, 'distance_accuracy_value', 'NONE');
#53 = STYLED_ITEM ( 'NONE', ( #54 ), #12 ) ;
#54 = PRESENTATION_STYLE_ASSIGNMENT (( #55 ) ) ;
#55 = SURFACE_STYLE_USAGE ( .BOTH. , #56 ) ;
#56 = SURFACE_SIDE_STYLE ('',( #57 ) ) ;
#57 = SURFACE_STYLE_FILL_AREA ( #58 ) ;
#58 = FILL_AREA_STYLE ('',( #59 ) ) ;
#59 = FILL_AREA_STYLE_COLOUR ( '', #103 ) ;
#60 = FILL_AREA_STYLE ('',( #105 ) ) ;
#61 = PRESENTATION_STYLE_ASSIGNMENT (( #62 ) ) ;
#62 = SURFACE_STYLE_USAGE ( .BOTH. , #63 ) ;
#63 = SURFACE_SIDE_STYLE ('',( #64 ) ) ;
#64 = SURFACE_STYLE_FILL_AREA ( #65 ) ;
#65 = FILL_AREA_STYLE ('',( #73 ) ) ;
#66 = COLOUR_RGB ( '',0.9568627450980391500, 0.9490196078431372100, 0.9607843137254902200 ) ;
#67 = FACE_OUTER_BOUND ( 'NONE', #10, .T. ) ;
#68 = DIRECTION ( 'NONE',  ( 0.0000000000000000000, 0.0000000000000000000, -1.000000000000000000 ) ) ;
#69 = DIRECTION ( 'NONE',  ( 1.000000000000000000, 0.0000000000000000000, 0.0000000000000000000 ) ) ;
#70 = CARTESIAN_POINT ( 'NONE',  ( 0.0000000000000000000, 0.0000000000000000000, -22.75499999999999900 ) ) ;
#71 = AXIS2_PLACEMENT_3D ( 'NONE', #70, #69, #68 ) ;
#72 = CIRCLE ( 'NONE', #71, 30.89999999999999900 ) ;
#73 = FILL_AREA_STYLE_COLOUR ( '', #66 ) ;
#74 = CARTESIAN_POINT ( 'NONE',  ( 0.0000000000000000000, 1.892016816655572600E-015, 8.144999999999999600 ) ) ;
#75 = DIRECTION ( 'NONE',  ( 1.000000000000000000, 0.0000000000000000000, 0.0000000000000000000 ) ) ;
#76 =( NAMED_UNIT ( * ) PLANE_ANGLE_UNIT ( ) SI_UNIT ( $, .RADIAN. ) );
#77 = MECHANICAL_DESIGN_GEOMETRIC_PRESENTATION_REPRESENTATION (  '', ( #202 ), #157 ) ;
#78 = PRESENTATION_LAYER_ASSIGNMENT (  '', '', ( #202 ) ) ;
#79 =( LENGTH_UNIT ( ) NAMED_UNIT ( * ) SI_UNIT ( .MILLI., .METRE. ) );
#80 = STYLED_ITEM ( 'NONE', ( #81 ), #22 ) ;
#81 = PRESENTATION_STYLE_ASSIGNMENT (( #82 ) ) ;
#82 = SURFACE_STYLE_USAGE ( .BOTH. , #83 ) ;
#83 = SURFACE_SIDE_STYLE ('',( #84 ) ) ;
#84 = SURFACE_STYLE_FILL_AREA ( #85 ) ;
#85 = FILL_AREA_STYLE ('',( #86 ) ) ;
#86 = FILL_AREA_STYLE_COLOUR ( '', #87 ) ;
#87 = COLOUR_RGB ( '',0.9568627450980391500, 0.9490196078431372100, 0.9607843137254902200 ) ;
#88 = FACE_OUTER_BOUND ( 'NONE', #23, .T. ) ;
#89 =( GEOMETRIC_REPRESENTATION_CONTEXT ( 3 ) GLOBAL_UNCERTAINTY_ASSIGNED_CONTEXT ( ( #96 ) ) GLOBAL_UNIT_ASSIGNED_CONTEXT ( ( #214, #213, #97 ) ) REPRESENTATION_CONTEXT ( 'NONE', 'WORKASPACE' ) );
#90 = DIRECTION ( 'NONE',  ( -0.0000000000000000000, -0.0000000000000000000, 1.000000000000000000 ) ) ;
#91 = CARTESIAN_POINT ( 'NONE',  ( 0.0000000000000000000, 0.0000000000000000000, 4.308132045400366600 ) ) ;
#92 = AXIS2_PLACEMENT_3D ( 'NONE', #91, #90, #119 ) ;
#93 = CIRCLE ( 'NONE', #118, 25.39999999999999900 ) ;
#94 = CYLINDRICAL_SURFACE ( 'NONE', #92, 25.39999999999999900 ) ;
#95 =( GEOMETRIC_REPRESENTATION_CONTEXT ( 3 ) GLOBAL_UNCERTAINTY_ASSIGNED_CONTEXT ( ( #158 ) ) GLOBAL_UNIT_ASSIGNED_CONTEXT ( ( #190, #189, #159 ) ) REPRESENTATION_CONTEXT ( 'NONE', 'WORKASPACE' ) );
#96 = UNCERTAINTY_MEASURE_WITH_UNIT (LENGTH_MEASURE( 1.000000000000000100E-005 ), #214, 'distance_accuracy_value', 'NONE');
#97 =( NAMED_UNIT ( * ) SI_UNIT ( $, .STERADIAN. ) SOLID_ANGLE_UNIT ( ) );
#98 = CIRCLE ( 'NONE', #201, 25.39999999999999900 ) ;
#99 = CARTESIAN_POINT ( 'NONE',  ( -3.110500138708837800E-015, -25.39999999999999900, -5.158125277481799400 ) ) ;
#100 = DIRECTION ( 'NONE',  ( -1.224606353822377300E-016, -1.000000000000000000, 0.0000000000000000000 ) ) ;
#101 = DIRECTION ( 'NONE',  ( -1.000000000000000000, 1.224606353822377300E-016, 0.0000000000000000000 ) ) ;
#102 = SPHERICAL_SURFACE ( 'NONE', #169, 30.89999999999999900 ) ;
#103 = COLOUR_RGB ( '',0.9568627450980391500, 0.9490196078431372100, 0.9607843137254902200 ) ;
#104 = FACE_OUTER_BOUND ( 'NONE', #45, .T. ) ;
#105 = FILL_AREA_STYLE_COLOUR ( '', #163 ) ;
#106 = DIRECTION ( 'NONE',  ( -0.0000000000000000000, -0.0000000000000000000, 1.000000000000000000 ) ) ;
#107 = CARTESIAN_POINT ( 'NONE',  ( 25.39999999999999900, 0.0000000000000000000, 4.308132045400366600 ) ) ;
#108 = CARTESIAN_POINT ( 'NONE',  ( -25.39999999999999900, 3.110500138708838200E-015, -5.158125277481801200 ) ) ;
#109 = DIRECTION ( 'NONE',  ( -0.0000000000000000000, -0.0000000000000000000, 1.000000000000000000 ) ) ;
#110 = VECTOR ( 'NONE', #109, 1000.000000000000000 ) ;
#111 = CARTESIAN_POINT ( 'NONE',  ( -25.39999999999999900, 3.110500138708838200E-015, 4.308132045400366600 ) ) ;
#112 = LINE ( 'NONE', #111, #110 ) ;
#113 = CARTESIAN_POINT ( 'NONE',  ( -25.39999999999999900, 3.110500138708838200E-015, -8.144999999999999600 ) ) ;
#114 = CARTESIAN_POINT ( 'NONE',  ( 25.39999999999999900, 0.0000000000000000000, -8.144999999999999600 ) ) ;
#115 = DIRECTION ( 'NONE',  ( 1.000000000000000000, 0.0000000000000000000, 0.0000000000000000000 ) ) ;
#116 = DIRECTION ( 'NONE',  ( -0.0000000000000000000, -0.0000000000000000000, 1.000000000000000000 ) ) ;
#117 = CARTESIAN_POINT ( 'NONE',  ( 0.0000000000000000000, 0.0000000000000000000, -8.144999999999999600 ) ) ;
#118 = AXIS2_PLACEMENT_3D ( 'NONE', #117, #116, #115 ) ;
#119 = DIRECTION ( 'NONE',  ( 1.000000000000000000, 0.0000000000000000000, 0.0000000000000000000 ) ) ;
#120 = VECTOR ( 'NONE', #160, 1000.000000000000000 ) ;
#121 =( LENGTH_UNIT ( ) NAMED_UNIT ( * ) SI_UNIT ( .MILLI., .METRE. ) );
#122 = MECHANICAL_DESIGN_GEOMETRIC_PRESENTATION_REPRESENTATION (  '', ( #53 ), #156 ) ;
#123 = PRESENTATION_LAYER_ASSIGNMENT (  '', '', ( #53 ) ) ;
#124 = CIRCLE ( 'NONE', #164, 25.39999999999999900 ) ;
#125 = CARTESIAN_POINT ( 'NONE',  ( 0.0000000000000000000, 0.0000000000000000000, -22.75499999999999900 ) ) ;
#126 = AXIS2_PLACEMENT_3D ( 'NONE', #125, #101, #100 ) ;
#127 = CIRCLE ( 'NONE', #126, 30.89999999999999900 ) ;
#128 = DIRECTION ( 'NONE',  ( 1.000000000000000000, 0.0000000000000000000, 0.0000000000000000000 ) ) ;
#129 = DIRECTION ( 'NONE',  ( -0.0000000000000000000, -0.0000000000000000000, 1.000000000000000000 ) ) ;
#130 = CARTESIAN_POINT ( 'NONE',  ( 0.0000000000000000000, 0.0000000000000000000, -5.158125277481801200 ) ) ;
#131 = AXIS2_PLACEMENT_3D ( 'NONE', #130, #129, #75 ) ;
#132 = CIRCLE ( 'NONE', #131, 25.39999999999999900 ) ;
#133 = CARTESIAN_POINT ( 'NONE',  ( 0.0000000000000000000, 25.39999999999999900, -5.158125277481799400 ) ) ;
#134 = DIRECTION ( 'NONE',  ( 1.000000000000000000, 0.0000000000000000000, 0.0000000000000000000 ) ) ;
#135 = DIRECTION ( 'NONE',  ( -0.0000000000000000000, -0.0000000000000000000, 1.000000000000000000 ) ) ;
#136 = CARTESIAN_POINT ( 'NONE',  ( 0.0000000000000000000, 0.0000000000000000000, -5.158125277481801200 ) ) ;
#137 = AXIS2_PLACEMENT_3D ( 'NONE', #136, #135, #134 ) ;
#138 = CIRCLE ( 'NONE', #137, 25.39999999999999900 ) ;
#139 = MECHANICAL_DESIGN_GEOMETRIC_PRESENTATION_REPRESENTATION (  '', ( #141 ), #89 ) ;
#140 = PRESENTATION_LAYER_ASSIGNMENT (  '', '', ( #141 ) ) ;
#141 = STYLED_ITEM ( 'NONE', ( #142 ), #21 ) ;
#142 = PRESENTATION_STYLE_ASSIGNMENT (( #143 ) ) ;
#143 = SURFACE_STYLE_USAGE ( .BOTH. , #144 ) ;
#144 = SURFACE_SIDE_STYLE ('',( #145 ) ) ;
#145 = SURFACE_STYLE_FILL_AREA ( #146 ) ;
#146 = FILL_AREA_STYLE ('',( #147 ) ) ;
#147 = FILL_AREA_STYLE_COLOUR ( '', #175 ) ;
#148 = UNCERTAINTY_MEASURE_WITH_UNIT (LENGTH_MEASURE( 1.000000000000000100E-005 ), #151, 'distance_accuracy_value', 'NONE');
#149 =( NAMED_UNIT ( * ) SI_UNIT ( $, .STERADIAN. ) SOLID_ANGLE_UNIT ( ) );
#150 =( NAMED_UNIT ( * ) PLANE_ANGLE_UNIT ( ) SI_UNIT ( $, .RADIAN. ) );
#151 =( LENGTH_UNIT ( ) NAMED_UNIT ( * ) SI_UNIT ( .MILLI., .METRE. ) );
#152 = MECHANICAL_DESIGN_GEOMETRIC_PRESENTATION_REPRESENTATION (  '', ( #154 ), #212 ) ;
#153 = PRESENTATION_LAYER_ASSIGNMENT (  '', '', ( #154 ) ) ;
#154 = STYLED_ITEM ( 'NONE', ( #61 ), #42 ) ;
#155 = CYLINDRICAL_SURFACE ( 'NONE', #217, 25.39999999999999900 ) ;
#156 =( GEOMETRIC_REPRESENTATION_CONTEXT ( 3 ) GLOBAL_UNCERTAINTY_ASSIGNED_CONTEXT ( ( #195 ) ) GLOBAL_UNIT_ASSIGNED_CONTEXT ( ( #121, #218, #196 ) ) REPRESENTATION_CONTEXT ( 'NONE', 'WORKASPACE' ) );
#157 =( GEOMETRIC_REPRESENTATION_CONTEXT ( 3 ) GLOBAL_UNCERTAINTY_ASSIGNED_CONTEXT ( ( #52 ) ) GLOBAL_UNIT_ASSIGNED_CONTEXT ( ( #79, #76, #194 ) ) REPRESENTATION_CONTEXT ( 'NONE', 'WORKASPACE' ) );
#158 = UNCERTAINTY_MEASURE_WITH_UNIT (LENGTH_MEASURE( 1.000000000000000100E-005 ), #190, 'distance_accuracy_value', 'NONE');
#159 =( NAMED_UNIT ( * ) SI_UNIT ( $, .STERADIAN. ) SOLID_ANGLE_UNIT ( ) );
#160 = DIRECTION ( 'NONE',  ( -0.0000000000000000000, -0.0000000000000000000, 1.000000000000000000 ) ) ;
#161 = LINE ( 'NONE', #107, #120 ) ;
#162 = SURFACE_STYLE_FILL_AREA ( #60 ) ;
#163 = COLOUR_RGB ( '',0.9568627450980391500, 0.9490196078431372100, 0.9607843137254902200 ) ;
#164 = AXIS2_PLACEMENT_3D ( 'NONE', #165, #106, #197 ) ;
#165 = CARTESIAN_POINT ( 'NONE',  ( 0.0000000000000000000, 0.0000000000000000000, -5.158125277481801200 ) ) ;
#166 = DIRECTION ( 'NONE',  ( 0.0000000000000000000, 1.000000000000000000, 0.0000000000000000000 ) ) ;
#167 = DIRECTION ( 'NONE',  ( -1.000000000000000000, 0.0000000000000000000, 0.0000000000000000000 ) ) ;
#168 = CARTESIAN_POINT ( 'NONE',  ( 0.0000000000000000000, 0.0000000000000000000, -22.75499999999999900 ) ) ;
#169 = AXIS2_PLACEMENT_3D ( 'NONE', #168, #167, #166 ) ;
#170 = DIRECTION ( 'NONE',  ( 1.000000000000000000, 0.0000000000000000000, 0.0000000000000000000 ) ) ;
#171 = DIRECTION ( 'NONE',  ( -0.0000000000000000000, -0.0000000000000000000, 1.000000000000000000 ) ) ;
#172 = CARTESIAN_POINT ( 'NONE',  ( 0.0000000000000000000, 0.0000000000000000000, -8.144999999999999600 ) ) ;
#173 = AXIS2_PLACEMENT_3D ( 'NONE', #172, #171, #170 ) ;
#174 = CIRCLE ( 'NONE', #173, 25.39999999999999900 ) ;
#175 = COLOUR_RGB ( '',0.7960784313725489700, 0.8235294117647058400, 0.9372549019607843100 ) ;
#176 =( NAMED_UNIT ( * ) SI_UNIT ( $, .STERADIAN. ) SOLID_ANGLE_UNIT ( ) );
#177 =( NAMED_UNIT ( * ) PLANE_ANGLE_UNIT ( ) SI_UNIT ( $, .RADIAN. ) );
#178 =( LENGTH_UNIT ( ) NAMED_UNIT ( * ) SI_UNIT ( .MILLI., .METRE. ) );
#179 = MECHANICAL_DESIGN_GEOMETRIC_PRESENTATION_REPRESENTATION (  '', ( #181 ), #50 ) ;
#180 = PRESENTATION_LAYER_ASSIGNMENT (  '', '', ( #181 ) ) ;
#181 = STYLED_ITEM ( 'NONE', ( #182 ), #44 ) ;
#182 = PRESENTATION_STYLE_ASSIGNMENT (( #183 ) ) ;
#183 = SURFACE_STYLE_USAGE ( .BOTH. , #184 ) ;
#184 = SURFACE_SIDE_STYLE ('',( #185 ) ) ;
#185 = SURFACE_STYLE_FILL_AREA ( #186 ) ;
#186 = FILL_AREA_STYLE ('',( #210 ) ) ;
#187 = COLOUR_RGB ( '',0.9568627450980391500, 0.9490196078431372100, 0.9607843137254902200 ) ;
#188 = DIRECTION ( 'NONE',  ( 1.000000000000000000, 0.0000000000000000000, 0.0000000000000000000 ) ) ;
#189 =( NAMED_UNIT ( * ) PLANE_ANGLE_UNIT ( ) SI_UNIT ( $, .RADIAN. ) );
#190 =( LENGTH_UNIT ( ) NAMED_UNIT ( * ) SI_UNIT ( .MILLI., .METRE. ) );
#191 = MECHANICAL_DESIGN_GEOMETRIC_PRESENTATION_REPRESENTATION (  '', ( #80 ), #95 ) ;
#192 = PRESENTATION_LAYER_ASSIGNMENT (  '', '', ( #80 ) ) ;
#193 = FACE_OUTER_BOUND ( 'NONE', #14, .T. ) ;
#194 =( NAMED_UNIT ( * ) SI_UNIT ( $, .STERADIAN. ) SOLID_ANGLE_UNIT ( ) );
#195 = UNCERTAINTY_MEASURE_WITH_UNIT (LENGTH_MEASURE( 1.000000000000000100E-005 ), #121, 'distance_accuracy_value', 'NONE');
#196 =( NAMED_UNIT ( * ) SI_UNIT ( $, .STERADIAN. ) SOLID_ANGLE_UNIT ( ) );
#197 = DIRECTION ( 'NONE',  ( 1.000000000000000000, 0.0000000000000000000, 0.0000000000000000000 ) ) ;
#198 = DIRECTION ( 'NONE',  ( 1.000000000000000000, 0.0000000000000000000, 0.0000000000000000000 ) ) ;
#199 = DIRECTION ( 'NONE',  ( -0.0000000000000000000, -0.0000000000000000000, 1.000000000000000000 ) ) ;
#200 = CARTESIAN_POINT ( 'NONE',  ( 0.0000000000000000000, 0.0000000000000000000, -5.158125277481801200 ) ) ;
#201 = AXIS2_PLACEMENT_3D ( 'NONE', #200, #199, #198 ) ;
#202 = STYLED_ITEM ( 'NONE', ( #203 ), #5 ) ;
#203 = PRESENTATION_STYLE_ASSIGNMENT (( #204 ) ) ;
#204 = SURFACE_STYLE_USAGE ( .BOTH. , #205 ) ;
#205 = SURFACE_SIDE_STYLE ('',( #162 ) ) ;
#206 = DIRECTION ( 'NONE',  ( 0.0000000000000000000, -0.0000000000000000000, 1.000000000000000000 ) ) ;
#207 = CARTESIAN_POINT ( 'NONE',  ( 0.0000000000000000000, 2.992424453716557800E-015, -8.144999999999999600 ) ) ;
#208 = AXIS2_PLACEMENT_3D ( 'NONE', #207, #206, #188 ) ;
#209 = FACE_OUTER_BOUND ( 'NONE', #43, .T. ) ;
#210 = FILL_AREA_STYLE_COLOUR ( '', #187 ) ;
#211 = PLANE ( 'NONE',  #208 ) ;
#212 =( GEOMETRIC_REPRESENTATION_CONTEXT ( 3 ) GLOBAL_UNCERTAINTY_ASSIGNED_CONTEXT ( ( #148 ) ) GLOBAL_UNIT_ASSIGNED_CONTEXT ( ( #151, #150, #149 ) ) REPRESENTATION_CONTEXT ( 'NONE', 'WORKASPACE' ) );
#213 =( NAMED_UNIT ( * ) PLANE_ANGLE_UNIT ( ) SI_UNIT ( $, .RADIAN. ) );
#214 =( LENGTH_UNIT ( ) NAMED_UNIT ( * ) SI_UNIT ( .MILLI., .METRE. ) );
#215 = DIRECTION ( 'NONE',  ( -0.0000000000000000000, -0.0000000000000000000, 1.000000000000000000 ) ) ;
#216 = CARTESIAN_POINT ( 'NONE',  ( 0.0000000000000000000, 0.0000000000000000000, 4.308132045400366600 ) ) ;
#217 = AXIS2_PLACEMENT_3D ( 'NONE', #216, #215, #128 ) ;
#218 =( NAMED_UNIT ( * ) PLANE_ANGLE_UNIT ( ) SI_UNIT ( $, .RADIAN. ) );
#219 =( NAMED_UNIT ( * ) PLANE_ANGLE_UNIT ( ) SI_UNIT ( $, .RADIAN. ) );
#220 = PRODUCT ( '3268-E0W', '3268-E0W', '', ( #221 ) ) ;
#221 = PRODUCT_CONTEXT ( 'NONE', #246, 'mechanical' ) ;
#222 = APPLICATION_PROTOCOL_DEFINITION ( 'draft international standard', 'automotive_design', 1998, #246 ) ;
#223 = PRODUCT_RELATED_PRODUCT_CATEGORY ( 'part', '', ( #220 ) ) ;
#224 = PRODUCT_DEFINITION_FORMATION_WITH_SPECIFIED_SOURCE ( 'ANY', '', #220, .NOT_KNOWN. ) ;
#225 = PRODUCT_DEFINITION ( 'UNKNOWN', '', #224, #226 ) ;
#226 = PRODUCT_DEFINITION_CONTEXT ( 'detailed design', #228, 'design' ) ;
#227 = APPLICATION_PROTOCOL_DEFINITION ( 'draft international standard', 'automotive_design', 1998, #228 ) ;
#228 = APPLICATION_CONTEXT ( 'automotive_design' ) ;
#229 = SURFACE_STYLE_USAGE ( .BOTH. , #230 ) ;
#230 = SURFACE_SIDE_STYLE ('',( #231 ) ) ;
#231 = SURFACE_STYLE_FILL_AREA ( #232 ) ;
#232 = FILL_AREA_STYLE ('',( #245 ) ) ;
#233 = COLOUR_RGB ( '',0.7960784313725489700, 0.8235294117647058400, 0.9372549019607843100 ) ;
#234 = DIRECTION ( 'NONE',  ( 0.0000000000000000000, 0.0000000000000000000, 1.000000000000000000 ) ) ;
#235 =( GEOMETRIC_REPRESENTATION_CONTEXT ( 3 ) GLOBAL_UNCERTAINTY_ASSIGNED_CONTEXT ( ( #247 ) ) GLOBAL_UNIT_ASSIGNED_CONTEXT ( ( #255, #219, #252 ) ) REPRESENTATION_CONTEXT ( 'NONE', 'WORKASPACE' ) );
#236 = MECHANICAL_DESIGN_GEOMETRIC_PRESENTATION_REPRESENTATION (  '', ( #238 ), #235 ) ;
#237 = PRESENTATION_LAYER_ASSIGNMENT (  '', '', ( #238 ) ) ;
#238 = STYLED_ITEM ( 'NONE', ( #239 ), #256 ) ;
#239 = PRESENTATION_STYLE_ASSIGNMENT (( #229 ) ) ;
#240 = CARTESIAN_POINT ( 'NONE',  ( 25.39999999999999900, 0.0000000000000000000, -5.158125277481801200 ) ) ;
#241 = DIRECTION ( 'NONE',  ( -1.000000000000000000, 0.0000000000000000000, 0.0000000000000000000 ) ) ;
#242 =( NAMED_UNIT ( * ) PLANE_ANGLE_UNIT ( ) SI_UNIT ( $, .RADIAN. ) );
#243 = CARTESIAN_POINT ( 'NONE',  ( 0.0000000000000000000, 0.0000000000000000000, -22.75499999999999900 ) ) ;
#244 = AXIS2_PLACEMENT_3D ( 'NONE', #259, #234, #261 ) ;
#245 = FILL_AREA_STYLE_COLOUR ( '', #233 ) ;
#246 = APPLICATION_CONTEXT ( 'automotive_design' ) ;
#247 = UNCERTAINTY_MEASURE_WITH_UNIT (LENGTH_MEASURE( 1.000000000000000100E-005 ), #255, 'distance_accuracy_value', 'NONE');
#248 =( LENGTH_UNIT ( ) NAMED_UNIT ( * ) SI_UNIT ( .MILLI., .METRE. ) );
#249 = UNCERTAINTY_MEASURE_WITH_UNIT (LENGTH_MEASURE( 1.000000000000000100E-005 ), #248, 'distance_accuracy_value', 'NONE');
#250 = PRODUCT_DEFINITION_SHAPE ( 'NONE', 'NONE',  #225 ) ;
#251 =( GEOMETRIC_REPRESENTATION_CONTEXT ( 3 ) GLOBAL_UNCERTAINTY_ASSIGNED_CONTEXT ( ( #249 ) ) GLOBAL_UNIT_ASSIGNED_CONTEXT ( ( #248, #242, #257 ) ) REPRESENTATION_CONTEXT ( 'NONE', 'WORKASPACE' ) );
#252 =( NAMED_UNIT ( * ) SI_UNIT ( $, .STERADIAN. ) SOLID_ANGLE_UNIT ( ) );
#253 = DIRECTION ( 'NONE',  ( 0.0000000000000000000, 1.000000000000000000, 0.0000000000000000000 ) ) ;
#254 = SHAPE_DEFINITION_REPRESENTATION ( #250, #256 ) ;
#255 =( LENGTH_UNIT ( ) NAMED_UNIT ( * ) SI_UNIT ( .MILLI., .METRE. ) );
#256 = ADVANCED_BREP_SHAPE_REPRESENTATION ( '3268-E0W', ( #21, #244 ), #251 ) ;
#257 =( NAMED_UNIT ( * ) SI_UNIT ( $, .STERADIAN. ) SOLID_ANGLE_UNIT ( ) );
#258 = SPHERICAL_SURFACE ( 'NONE', #260, 30.89999999999999900 ) ;
#259 = CARTESIAN_POINT ( 'NONE',  ( 0.0000000000000000000, 0.0000000000000000000, 0.0000000000000000000 ) ) ;
#260 = AXIS2_PLACEMENT_3D ( 'NONE', #243, #241, #253 ) ;
#261 = DIRECTION ( 'NONE',  ( 1.000000000000000000, 0.0000000000000000000, 0.0000000000000000000 ) ) ;
ENDSEC;
END-ISO-10303-21;
