ISO-10303-21;
HEADER;
FILE_DESCRIPTION (( 'STEP AP203' ),
    '1' );
FILE_NAME ('Web Model 84454.STEP',
    '2017-02-01T15:44:09',
    ( '' ),
    ( '' ),
    'SwSTEP 2.0',
    'SolidWorks 2016',
    '' );
FILE_SCHEMA (( 'CONFIG_CONTROL_DESIGN' ));
ENDSEC;

DATA;
#1 = CALENDAR_DATE ( 2017, 1, 2 ) ;
#2 = CARTESIAN_POINT ( 'NONE',  ( 0.0000000000000000000, 0.0000000000000000000, 2.000000000000000000 ) ) ;
#3 = CARTESIAN_POINT ( 'NONE',  ( 0.0000000000000000000, 0.0000000000000000000, 2.000000000000000000 ) ) ;
#4 = ORGANIZATION ( 'UNSPECIFIED', 'UNSPECIFIED', '' ) ;
#5 = CC_DESIGN_DATE_AND_TIME_ASSIGNMENT ( #21, #77, ( #35 ) ) ;
#6 = DIRECTION ( 'NONE',  ( -0.0000000000000000000, -0.0000000000000000000, -1.000000000000000000 ) ) ;
#7 = APPROVAL_STATUS ( 'not_yet_approved' ) ;
#8 = PERSON_AND_ORGANIZATION_ROLE ( 'classification_officer' ) ;
#9 = PERSON_AND_ORGANIZATION_ROLE ( 'design_owner' ) ;
#10 = ORIENTED_EDGE ( 'NONE', *, *, #105, .T. ) ;
#11 = DIRECTION ( 'NONE',  ( 0.0000000000000000000, 0.0000000000000000000, 1.000000000000000000 ) ) ;
#12 = AXIS2_PLACEMENT_3D ( 'NONE', #171, #55, #42 ) ;
#13 = APPROVAL ( #88, 'UNSPECIFIED' ) ;
#14 = CARTESIAN_POINT ( 'NONE',  ( -10.00000000000000200, 0.0000000000000000000, 2.000000000000000000 ) ) ;
#15 = DIRECTION ( 'NONE',  ( -0.0000000000000000000, -0.0000000000000000000, -1.000000000000000000 ) ) ;
#16 = ORIENTED_EDGE ( 'NONE', *, *, #82, .T. ) ;
#17 = APPROVAL_ROLE ( '' ) ;
#18 = AXIS2_PLACEMENT_3D ( 'NONE', #3, #113, #27 ) ;
#19 = PERSON_AND_ORGANIZATION_ROLE ( 'design_supplier' ) ;
#20 = CC_DESIGN_SECURITY_CLASSIFICATION ( #35, ( #63 ) ) ;
#21 = DATE_AND_TIME ( #73, #79 ) ;
#22 = CIRCLE ( 'NONE', #18, 10.00000000000000200 ) ;
#23 = COORDINATED_UNIVERSAL_TIME_OFFSET ( 5, 0, .BEHIND. ) ;
#24 = CARTESIAN_POINT ( 'NONE',  ( 0.0000000000000000000, 0.0000000000000000000, 0.0000000000000000000 ) ) ;
#25 = PRODUCT_DEFINITION ( 'UNKNOWN', '', #63, #123 ) ;
#26 = DATE_AND_TIME ( #99, #173 ) ;
#27 = DIRECTION ( 'NONE',  ( 1.000000000000000000, 0.0000000000000000000, 0.0000000000000000000 ) ) ;
#28 = VERTEX_POINT ( 'NONE', #93 ) ;
#29 = CALENDAR_DATE ( 2017, 1, 2 ) ;
#30 = ADVANCED_FACE ( 'NONE', ( #132 ), #111, .T. ) ;
#31 = DIRECTION ( 'NONE',  ( -1.000000000000000000, 0.0000000000000000000, 0.0000000000000000000 ) ) ;
#32 = ORIENTED_EDGE ( 'NONE', *, *, #82, .F. ) ;
#33 = APPROVAL_PERSON_ORGANIZATION ( #95, #70, #17 ) ;
#34 = SECURITY_CLASSIFICATION_LEVEL ( 'unclassified' ) ;
#35 = SECURITY_CLASSIFICATION ( '', '', #34 ) ;
#36 = APPLICATION_CONTEXT ( 'configuration controlled 3d designs of mechanical parts and assemblies' ) ;
#37 = PERSON_AND_ORGANIZATION ( #142, #4 ) ;
#38 =( NAMED_UNIT ( * ) PLANE_ANGLE_UNIT ( ) SI_UNIT ( $, .RADIAN. ) );
#39 = VECTOR ( 'NONE', #6, 1000.000000000000000 ) ;
#40 = CARTESIAN_POINT ( 'NONE',  ( 10.00000000000000200, 1.224646799147353500E-015, 2.000000000000000000 ) ) ;
#41 = DIRECTION ( 'NONE',  ( -1.000000000000000000, 0.0000000000000000000, 0.0000000000000000000 ) ) ;
#42 = DIRECTION ( 'NONE',  ( 1.000000000000000000, 0.0000000000000000000, 0.0000000000000000000 ) ) ;
#43 = APPROVAL ( #52, 'UNSPECIFIED' ) ;
#44 = LOCAL_TIME ( 10, 44, 9.000000000000000000, #80 ) ;
#45 = FACE_OUTER_BOUND ( 'NONE', #89, .T. ) ;
#46 = CARTESIAN_POINT ( 'NONE',  ( 10.00000000000000200, 1.224646799147353500E-015, 0.0000000000000000000 ) ) ;
#47 = CC_DESIGN_PERSON_AND_ORGANIZATION_ASSIGNMENT ( #157, #78, ( #63 ) ) ;
#48 = ORIENTED_EDGE ( 'NONE', *, *, #105, .F. ) ;
#49 = EDGE_LOOP ( 'NONE', ( #97, #150 ) ) ;
#50 = ADVANCED_FACE ( 'NONE', ( #45 ), #109, .T. ) ;
#51 = DIRECTION ( 'NONE',  ( 1.000000000000000000, 0.0000000000000000000, -0.0000000000000000000 ) ) ;
#52 = APPROVAL_STATUS ( 'not_yet_approved' ) ;
#53 = CC_DESIGN_APPROVAL ( #43, ( #25 ) ) ;
#54 = CC_DESIGN_APPROVAL ( #13, ( #35 ) ) ;
#55 = DIRECTION ( 'NONE',  ( 0.0000000000000000000, 0.0000000000000000000, 1.000000000000000000 ) ) ;
#56 = DIRECTION ( 'NONE',  ( -0.0000000000000000000, -0.0000000000000000000, -1.000000000000000000 ) ) ;
#57 = DIRECTION ( 'NONE',  ( -0.0000000000000000000, -0.0000000000000000000, -1.000000000000000000 ) ) ;
#58 = DIRECTION ( 'NONE',  ( 1.000000000000000000, 0.0000000000000000000, 0.0000000000000000000 ) ) ;
#59 = PERSON_AND_ORGANIZATION ( #142, #4 ) ;
#60 = PRODUCT_RELATED_PRODUCT_CATEGORY ( 'detail', '', ( #74 ) ) ;
#61 = PERSON_AND_ORGANIZATION ( #142, #4 ) ;
#62 = ORIENTED_EDGE ( 'NONE', *, *, #116, .F. ) ;
#63 = PRODUCT_DEFINITION_FORMATION_WITH_SPECIFIED_SOURCE ( 'ANY', '', #74, .NOT_KNOWN. ) ;
#64 = VECTOR ( 'NONE', #57, 1000.000000000000000 ) ;
#65 = CIRCLE ( 'NONE', #160, 10.00000000000000200 ) ;
#66 = APPROVAL_ROLE ( '' ) ;
#67 = ORIENTED_EDGE ( 'NONE', *, *, #94, .T. ) ;
#68 = CARTESIAN_POINT ( 'NONE',  ( 0.0000000000000000000, 0.0000000000000000000, 2.000000000000000000 ) ) ;
#69 = DATE_AND_TIME ( #1, #44 ) ;
#70 = APPROVAL ( #7, 'UNSPECIFIED' ) ;
#71 = APPROVAL_PERSON_ORGANIZATION ( #37, #13, #169 ) ;
#72 = CALENDAR_DATE ( 2017, 1, 2 ) ;
#73 = CALENDAR_DATE ( 2017, 1, 2 ) ;
#74 = PRODUCT ( 'Web Model 84454', 'Web Model 84454', '', ( #117 ) ) ;
#75 = FACE_OUTER_BOUND ( 'NONE', #107, .T. ) ;
#76 = COORDINATED_UNIVERSAL_TIME_OFFSET ( 5, 0, .BEHIND. ) ;
#77 = DATE_TIME_ROLE ( 'classification_date' ) ;
#78 = PERSON_AND_ORGANIZATION_ROLE ( 'creator' ) ;
#79 = LOCAL_TIME ( 10, 44, 9.000000000000000000, #175 ) ;
#80 = COORDINATED_UNIVERSAL_TIME_OFFSET ( 5, 0, .BEHIND. ) ;
#81 = VERTEX_POINT ( 'NONE', #14 ) ;
#82 = EDGE_CURVE ( 'NONE', #81, #28, #143, .T. ) ;
#83 = VERTEX_POINT ( 'NONE', #115 ) ;
#84 = AXIS2_PLACEMENT_3D ( 'NONE', #98, #129, #130 ) ;
#85 = DATE_TIME_ROLE ( 'creation_date' ) ;
#86 = AXIS2_PLACEMENT_3D ( 'NONE', #154, #119, #51 ) ;
#87 = FACE_OUTER_BOUND ( 'NONE', #148, .T. ) ;
#88 = APPROVAL_STATUS ( 'not_yet_approved' ) ;
#89 = EDGE_LOOP ( 'NONE', ( #62, #67, #10, #32 ) ) ;
#90 = PRODUCT_DEFINITION_SHAPE ( 'NONE', 'NONE',  #25 ) ;
#91 =( GEOMETRIC_REPRESENTATION_CONTEXT ( 3 ) GLOBAL_UNCERTAINTY_ASSIGNED_CONTEXT ( ( #134 ) ) GLOBAL_UNIT_ASSIGNED_CONTEXT ( ( #159, #38, #100 ) ) REPRESENTATION_CONTEXT ( 'NONE', 'WORKASPACE' ) );
#92 = LINE ( 'NONE', #40, #64 ) ;
#93 = CARTESIAN_POINT ( 'NONE',  ( -10.00000000000000200, 0.0000000000000000000, 0.0000000000000000000 ) ) ;
#94 = EDGE_CURVE ( 'NONE', #83, #137, #92, .T. ) ;
#95 = PERSON_AND_ORGANIZATION ( #142, #4 ) ;
#96 = CARTESIAN_POINT ( 'NONE',  ( 0.0000000000000000000, 0.0000000000000000000, 2.000000000000000000 ) ) ;
#97 = ORIENTED_EDGE ( 'NONE', *, *, #131, .T. ) ;
#98 = CARTESIAN_POINT ( 'NONE',  ( 0.0000000000000000000, 0.0000000000000000000, 0.0000000000000000000 ) ) ;
#99 = CALENDAR_DATE ( 2017, 1, 2 ) ;
#100 =( NAMED_UNIT ( * ) SI_UNIT ( $, .STERADIAN. ) SOLID_ANGLE_UNIT ( ) );
#101 = CC_DESIGN_APPROVAL ( #70, ( #63 ) ) ;
#102 = PLANE ( 'NONE',  #86 ) ;
#103 = CIRCLE ( 'NONE', #12, 10.00000000000000200 ) ;
#104 = DIRECTION ( 'NONE',  ( 1.000000000000000000, 0.0000000000000000000, 0.0000000000000000000 ) ) ;
#105 = EDGE_CURVE ( 'NONE', #137, #28, #103, .T. ) ;
#106 = LOCAL_TIME ( 10, 44, 9.000000000000000000, #76 ) ;
#107 = EDGE_LOOP ( 'NONE', ( #172, #48 ) ) ;
#108 = CYLINDRICAL_SURFACE ( 'NONE', #153, 10.00000000000000200 ) ;
#109 = CYLINDRICAL_SURFACE ( 'NONE', #133, 10.00000000000000200 ) ;
#110 = MANIFOLD_SOLID_BREP ( 'Extrude1', #120 ) ;
#111 = PLANE ( 'NONE',  #114 ) ;
#112 = DIRECTION ( 'NONE',  ( 0.0000000000000000000, 0.0000000000000000000, 1.000000000000000000 ) ) ;
#113 = DIRECTION ( 'NONE',  ( 0.0000000000000000000, 0.0000000000000000000, 1.000000000000000000 ) ) ;
#114 = AXIS2_PLACEMENT_3D ( 'NONE', #2, #112, #124 ) ;
#115 = CARTESIAN_POINT ( 'NONE',  ( 10.00000000000000200, 1.224646799147353500E-015, 2.000000000000000000 ) ) ;
#116 = EDGE_CURVE ( 'NONE', #83, #81, #22, .T. ) ;
#117 = MECHANICAL_CONTEXT ( 'NONE', #166, 'mechanical' ) ;
#118 = SHAPE_DEFINITION_REPRESENTATION ( #90, #144 ) ;
#119 = DIRECTION ( 'NONE',  ( 0.0000000000000000000, 0.0000000000000000000, 1.000000000000000000 ) ) ;
#120 = CLOSED_SHELL ( 'NONE', ( #50, #163, #30, #162 ) ) ;
#121 = CARTESIAN_POINT ( 'NONE',  ( 0.0000000000000000000, 0.0000000000000000000, 2.000000000000000000 ) ) ;
#122 = CC_DESIGN_DATE_AND_TIME_ASSIGNMENT ( #135, #85, ( #25 ) ) ;
#123 = DESIGN_CONTEXT ( 'detailed design', #36, 'design' ) ;
#124 = DIRECTION ( 'NONE',  ( 1.000000000000000000, 0.0000000000000000000, -0.0000000000000000000 ) ) ;
#125 = AXIS2_PLACEMENT_3D ( 'NONE', #68, #11, #104 ) ;
#126 = PERSON_AND_ORGANIZATION ( #142, #4 ) ;
#127 = COORDINATED_UNIVERSAL_TIME_OFFSET ( 5, 0, .BEHIND. ) ;
#128 = CARTESIAN_POINT ( 'NONE',  ( -10.00000000000000200, 0.0000000000000000000, 2.000000000000000000 ) ) ;
#129 = DIRECTION ( 'NONE',  ( 0.0000000000000000000, 0.0000000000000000000, 1.000000000000000000 ) ) ;
#130 = DIRECTION ( 'NONE',  ( 1.000000000000000000, 0.0000000000000000000, 0.0000000000000000000 ) ) ;
#131 = EDGE_CURVE ( 'NONE', #81, #83, #158, .T. ) ;
#132 = FACE_OUTER_BOUND ( 'NONE', #49, .T. ) ;
#133 = AXIS2_PLACEMENT_3D ( 'NONE', #96, #15, #31 ) ;
#134 = UNCERTAINTY_MEASURE_WITH_UNIT (LENGTH_MEASURE( 1.000000000000000100E-005 ), #159, 'distance_accuracy_value', 'NONE');
#135 = DATE_AND_TIME ( #72, #106 ) ;
#136 = DATE_AND_TIME ( #29, #155 ) ;
#137 = VERTEX_POINT ( 'NONE', #46 ) ;
#138 = APPROVAL_DATE_TIME ( #69, #43 ) ;
#139 = CC_DESIGN_PERSON_AND_ORGANIZATION_ASSIGNMENT ( #146, #152, ( #25 ) ) ;
#140 = ORIENTED_EDGE ( 'NONE', *, *, #167, .T. ) ;
#141 = PERSON_AND_ORGANIZATION ( #142, #4 ) ;
#142 = PERSON ( 'UNSPECIFIED', 'UNSPECIFIED', 'UNSPECIFIED', ('UNSPECIFIED'), ('UNSPECIFIED'), ('UNSPECIFIED') ) ;
#143 = LINE ( 'NONE', #128, #39 ) ;
#144 = ADVANCED_BREP_SHAPE_REPRESENTATION ( 'Web Model 84454', ( #110, #84 ), #91 ) ;
#145 = CC_DESIGN_PERSON_AND_ORGANIZATION_ASSIGNMENT ( #126, #9, ( #74 ) ) ;
#146 = PERSON_AND_ORGANIZATION ( #142, #4 ) ;
#147 = APPLICATION_PROTOCOL_DEFINITION ( 'international standard', 'config_control_design', 1994, #166 ) ;
#148 = EDGE_LOOP ( 'NONE', ( #151, #164, #16, #140 ) ) ;
#149 = APPROVAL_PERSON_ORGANIZATION ( #59, #43, #66 ) ;
#150 = ORIENTED_EDGE ( 'NONE', *, *, #116, .T. ) ;
#151 = ORIENTED_EDGE ( 'NONE', *, *, #94, .F. ) ;
#152 = PERSON_AND_ORGANIZATION_ROLE ( 'creator' ) ;
#153 = AXIS2_PLACEMENT_3D ( 'NONE', #121, #56, #41 ) ;
#154 = CARTESIAN_POINT ( 'NONE',  ( 0.0000000000000000000, 0.0000000000000000000, 0.0000000000000000000 ) ) ;
#155 = LOCAL_TIME ( 10, 44, 9.000000000000000000, #127 ) ;
#156 = CC_DESIGN_PERSON_AND_ORGANIZATION_ASSIGNMENT ( #61, #19, ( #63 ) ) ;
#157 = PERSON_AND_ORGANIZATION ( #142, #4 ) ;
#158 = CIRCLE ( 'NONE', #125, 10.00000000000000200 ) ;
#159 =( LENGTH_UNIT ( ) NAMED_UNIT ( * ) SI_UNIT ( .MILLI., .METRE. ) );
#160 = AXIS2_PLACEMENT_3D ( 'NONE', #24, #174, #58 ) ;
#161 = APPROVAL_DATE_TIME ( #136, #13 ) ;
#162 = ADVANCED_FACE ( 'NONE', ( #75 ), #102, .F. ) ;
#163 = ADVANCED_FACE ( 'NONE', ( #87 ), #108, .T. ) ;
#164 = ORIENTED_EDGE ( 'NONE', *, *, #131, .F. ) ;
#165 = APPLICATION_PROTOCOL_DEFINITION ( 'international standard', 'config_control_design', 1994, #36 ) ;
#166 = APPLICATION_CONTEXT ( 'configuration controlled 3d designs of mechanical parts and assemblies' ) ;
#167 = EDGE_CURVE ( 'NONE', #28, #137, #65, .T. ) ;
#168 = APPROVAL_DATE_TIME ( #26, #70 ) ;
#169 = APPROVAL_ROLE ( '' ) ;
#170 = CC_DESIGN_PERSON_AND_ORGANIZATION_ASSIGNMENT ( #141, #8, ( #35 ) ) ;
#171 = CARTESIAN_POINT ( 'NONE',  ( 0.0000000000000000000, 0.0000000000000000000, 0.0000000000000000000 ) ) ;
#172 = ORIENTED_EDGE ( 'NONE', *, *, #167, .F. ) ;
#173 = LOCAL_TIME ( 10, 44, 9.000000000000000000, #23 ) ;
#174 = DIRECTION ( 'NONE',  ( 0.0000000000000000000, 0.0000000000000000000, 1.000000000000000000 ) ) ;
#175 = COORDINATED_UNIVERSAL_TIME_OFFSET ( 5, 0, .BEHIND. ) ;
ENDSEC;
END-ISO-10303-21;
