ISO-10303-21;
HEADER;
FILE_DESCRIPTION (( 'STEP AP203' ),
    '1' );
FILE_NAME ('Web Model Lightsmyth Gratings_16864.step',
    '2021-03-11T20:24:32',
    ( '' ),
    ( '' ),
    'SwSTEP 2.0',
    'SolidWorks 2018',
    '' );
FILE_SCHEMA (( 'CONFIG_CONTROL_DESIGN' ));
ENDSEC;

DATA;
#1 = EDGE_CURVE ( 'NONE', #104, #142, #102, .T. ) ;
#2 = DIRECTION ( 'NONE',  ( -1.000000000000000000, -0.0000000000000000000, -0.0000000000000000000 ) ) ;
#3 = VECTOR ( 'NONE', #22, 1000.000000000000000 ) ;
#4 = DIRECTION ( 'NONE',  ( 0.0000000000000000000, -0.0000000000000000000, -1.000000000000000000 ) ) ;
#5 = CARTESIAN_POINT ( 'NONE',  ( 0.0000000000000000000, 0.0000000000000000000, 0.9499999999999999556 ) ) ;
#6 = AXIS2_PLACEMENT_3D ( 'NONE', #79, #38, #41 ) ;
#7 = CARTESIAN_POINT ( 'NONE',  ( -15.89999999999999680, 12.40000000000000213, 0.9499999999999999556 ) ) ;
#8 = ADVANCED_FACE ( 'NONE', ( #222 ), #93, .F. ) ;
#9 = CC_DESIGN_APPROVAL ( #155, ( #98 ) ) ;
#10 = DIRECTION ( 'NONE',  ( 0.0000000000000000000, 1.000000000000000000, 0.0000000000000000000 ) ) ;
#11 = APPLICATION_PROTOCOL_DEFINITION ( 'international standard', 'config_control_design', 1994, #64 ) ;
#12 = ADVANCED_FACE ( 'NONE', ( #116 ), #198, .F. ) ;
#13 = VECTOR ( 'NONE', #10, 1000.000000000000000 ) ;
#14 = ORIENTED_EDGE ( 'NONE', *, *, #227, .F. ) ;
#15 = EDGE_CURVE ( 'NONE', #126, #160, #145, .T. ) ;
#16 = CC_DESIGN_PERSON_AND_ORGANIZATION_ASSIGNMENT ( #140, #218, ( #196 ) ) ;
#17 = CARTESIAN_POINT ( 'NONE',  ( -15.89999999999999680, -12.40000000000000036, 0.9499999999999999556 ) ) ;
#18 = COORDINATED_UNIVERSAL_TIME_OFFSET ( 5, 0, .BEHIND. ) ;
#19 = CC_DESIGN_APPROVAL ( #70, ( #46 ) ) ;
#20 = ORIENTED_EDGE ( 'NONE', *, *, #111, .F. ) ;
#21 =( NAMED_UNIT ( * ) PLANE_ANGLE_UNIT ( ) SI_UNIT ( $, .RADIAN. ) );
#22 = DIRECTION ( 'NONE',  ( -0.0000000000000000000, -0.0000000000000000000, -1.000000000000000000 ) ) ;
#23 = ADVANCED_FACE ( 'NONE', ( #89 ), #40, .T. ) ;
#24 = LINE ( 'NONE', #183, #207 ) ;
#25 = CARTESIAN_POINT ( 'NONE',  ( -15.89999999999999680, -12.40000000000000036, 0.0000000000000000000 ) ) ;
#26 =( LENGTH_UNIT ( ) NAMED_UNIT ( * ) SI_UNIT ( .MILLI., .METRE. ) );
#27 = CARTESIAN_POINT ( 'NONE',  ( -15.89999999999999680, 12.40000000000000213, 0.0000000000000000000 ) ) ;
#28 = AXIS2_PLACEMENT_3D ( 'NONE', #5, #121, #137 ) ;
#29 = ORIENTED_EDGE ( 'NONE', *, *, #111, .T. ) ;
#30 = PRODUCT_DEFINITION_SHAPE ( 'NONE', 'NONE',  #98 ) ;
#31 = PERSON_AND_ORGANIZATION_ROLE ( 'design_supplier' ) ;
#32 = APPROVAL ( #210, 'UNSPECIFIED' ) ;
#33 = ORIENTED_EDGE ( 'NONE', *, *, #15, .T. ) ;
#34 = APPROVAL_DATE_TIME ( #226, #70 ) ;
#35 = CARTESIAN_POINT ( 'NONE',  ( 15.90000000000000391, -12.40000000000000036, 0.9499999999999999556 ) ) ;
#36 = ORIENTED_EDGE ( 'NONE', *, *, #227, .T. ) ;
#37 = CALENDAR_DATE ( 2021, 11, 3 ) ;
#38 = DIRECTION ( 'NONE',  ( 0.0000000000000000000, 0.0000000000000000000, 1.000000000000000000 ) ) ;
#39 = EDGE_CURVE ( 'NONE', #160, #97, #197, .T. ) ;
#40 = PLANE ( 'NONE',  #176 ) ;
#41 = DIRECTION ( 'NONE',  ( 1.000000000000000000, 0.0000000000000000000, 0.0000000000000000000 ) ) ;
#42 = DIRECTION ( 'NONE',  ( 0.0000000000000000000, -0.0000000000000000000, 1.000000000000000000 ) ) ;
#43 = DESIGN_CONTEXT ( 'detailed design', #64, 'design' ) ;
#44 = CARTESIAN_POINT ( 'NONE',  ( -15.89999999999999680, 12.40000000000000213, 0.0000000000000000000 ) ) ;
#45 = COORDINATED_UNIVERSAL_TIME_OFFSET ( 5, 0, .BEHIND. ) ;
#46 = PRODUCT_DEFINITION_FORMATION_WITH_SPECIFIED_SOURCE ( 'ANY', '', #196, .NOT_KNOWN. ) ;
#47 = CARTESIAN_POINT ( 'NONE',  ( -15.89999999999999680, -12.40000000000000036, 0.9499999999999999556 ) ) ;
#48 = ADVANCED_FACE ( 'NONE', ( #49 ), #63, .F. ) ;
#49 = FACE_OUTER_BOUND ( 'NONE', #146, .T. ) ;
#50 = EDGE_CURVE ( 'NONE', #214, #160, #62, .T. ) ;
#51 = PERSON_AND_ORGANIZATION ( #209, #73 ) ;
#52 = CARTESIAN_POINT ( 'NONE',  ( 15.90000000000000391, 12.40000000000000213, 0.9499999999999999556 ) ) ;
#53 = VECTOR ( 'NONE', #189, 1000.000000000000000 ) ;
#54 = VECTOR ( 'NONE', #172, 1000.000000000000000 ) ;
#55 = ORIENTED_EDGE ( 'NONE', *, *, #50, .F. ) ;
#56 = SECURITY_CLASSIFICATION_LEVEL ( 'unclassified' ) ;
#57 = PERSON_AND_ORGANIZATION_ROLE ( 'classification_officer' ) ;
#58 = VERTEX_POINT ( 'NONE', #153 ) ;
#59 = EDGE_CURVE ( 'NONE', #126, #236, #24, .T. ) ;
#60 = EDGE_LOOP ( 'NONE', ( #229, #200, #235, #36 ) ) ;
#61 = PRODUCT_RELATED_PRODUCT_CATEGORY ( 'detail', '', ( #196 ) ) ;
#62 = LINE ( 'NONE', #44, #143 ) ;
#63 = PLANE ( 'NONE',  #74 ) ;
#64 = APPLICATION_CONTEXT ( 'configuration controlled 3d designs of mechanical parts and assemblies' ) ;
#65 = DIRECTION ( 'NONE',  ( -0.0000000000000000000, -1.000000000000000000, -0.0000000000000000000 ) ) ;
#66 = ORIENTED_EDGE ( 'NONE', *, *, #59, .F. ) ;
#67 = DATE_AND_TIME ( #129, #135 ) ;
#68 = DIRECTION ( 'NONE',  ( 1.000000000000000000, 0.0000000000000000000, 0.0000000000000000000 ) ) ;
#69 = APPROVAL_STATUS ( 'not_yet_approved' ) ;
#70 = APPROVAL ( #127, 'UNSPECIFIED' ) ;
#71 = LINE ( 'NONE', #166, #13 ) ;
#72 = COORDINATED_UNIVERSAL_TIME_OFFSET ( 5, 0, .BEHIND. ) ;
#73 = ORGANIZATION ( 'UNSPECIFIED', 'UNSPECIFIED', '' ) ;
#74 = AXIS2_PLACEMENT_3D ( 'NONE', #187, #185, #169 ) ;
#75 = ORIENTED_EDGE ( 'NONE', *, *, #131, .T. ) ;
#76 = SECURITY_CLASSIFICATION ( '', '', #56 ) ;
#77 = FACE_OUTER_BOUND ( 'NONE', #60, .T. ) ;
#78 =( NAMED_UNIT ( * ) SI_UNIT ( $, .STERADIAN. ) SOLID_ANGLE_UNIT ( ) );
#79 = CARTESIAN_POINT ( 'NONE',  ( 0.0000000000000000000, 0.0000000000000000000, 0.0000000000000000000 ) ) ;
#80 = CC_DESIGN_PERSON_AND_ORGANIZATION_ASSIGNMENT ( #151, #232, ( #46 ) ) ;
#81 = ORIENTED_EDGE ( 'NONE', *, *, #39, .T. ) ;
#82 = PLANE ( 'NONE',  #28 ) ;
#83 = DIRECTION ( 'NONE',  ( -1.000000000000000000, -0.0000000000000000000, -0.0000000000000000000 ) ) ;
#84 = DIRECTION ( 'NONE',  ( -0.0000000000000000000, -0.0000000000000000000, -1.000000000000000000 ) ) ;
#85 = ORIENTED_EDGE ( 'NONE', *, *, #125, .F. ) ;
#86 = APPROVAL_PERSON_ORGANIZATION ( #51, #155, #159 ) ;
#87 = CC_DESIGN_PERSON_AND_ORGANIZATION_ASSIGNMENT ( #120, #57, ( #76 ) ) ;
#88 = PERSON_AND_ORGANIZATION_ROLE ( 'creator' ) ;
#89 = FACE_OUTER_BOUND ( 'NONE', #199, .T. ) ;
#90 = DATE_TIME_ROLE ( 'classification_date' ) ;
#91 = LINE ( 'NONE', #105, #54 ) ;
#92 = LOCAL_TIME ( 15, 24, 32.00000000000000000, #18 ) ;
#93 = PLANE ( 'NONE',  #136 ) ;
#94 = PERSON_AND_ORGANIZATION ( #209, #73 ) ;
#95 = PLANE ( 'NONE',  #191 ) ;
#96 = CARTESIAN_POINT ( 'NONE',  ( -15.89999999999999680, 12.40000000000000213, 0.9499999999999999556 ) ) ;
#97 = VERTEX_POINT ( 'NONE', #100 ) ;
#98 = PRODUCT_DEFINITION ( 'UNKNOWN', '', #46, #43 ) ;
#99 = UNCERTAINTY_MEASURE_WITH_UNIT (LENGTH_MEASURE( 1.000000000000000082E-05 ), #26, 'distance_accuracy_value', 'NONE');
#100 = CARTESIAN_POINT ( 'NONE',  ( -15.89999999999999680, -12.40000000000000036, 0.0000000000000000000 ) ) ;
#101 = CARTESIAN_POINT ( 'NONE',  ( -15.89999999999999680, 12.40000000000000213, 0.9499999999999999556 ) ) ;
#102 = LINE ( 'NONE', #35, #107 ) ;
#103 = ADVANCED_FACE ( 'NONE', ( #163 ), #82, .F. ) ;
#104 = VERTEX_POINT ( 'NONE', #186 ) ;
#105 = CARTESIAN_POINT ( 'NONE',  ( 15.90000000000000391, -12.40000000000000036, 0.9499999999999999556 ) ) ;
#106 = CARTESIAN_POINT ( 'NONE',  ( 15.90000000000000391, 12.40000000000000213, 0.0000000000000000000 ) ) ;
#107 = VECTOR ( 'NONE', #115, 1000.000000000000000 ) ;
#108 = PERSON_AND_ORGANIZATION ( #209, #73 ) ;
#109 = ORIENTED_EDGE ( 'NONE', *, *, #50, .T. ) ;
#110 = PERSON_AND_ORGANIZATION ( #209, #73 ) ;
#111 = EDGE_CURVE ( 'NONE', #97, #58, #188, .T. ) ;
#112 = ORIENTED_EDGE ( 'NONE', *, *, #184, .F. ) ;
#113 = CC_DESIGN_DATE_AND_TIME_ASSIGNMENT ( #124, #90, ( #76 ) ) ;
#114 = LINE ( 'NONE', #204, #152 ) ;
#115 = DIRECTION ( 'NONE',  ( 0.0000000000000000000, 1.000000000000000000, 0.0000000000000000000 ) ) ;
#116 = FACE_OUTER_BOUND ( 'NONE', #212, .T. ) ;
#117 = CARTESIAN_POINT ( 'NONE',  ( 15.90000000000000391, -12.40000000000000036, 0.9499999999999999556 ) ) ;
#118 = APPROVAL_DATE_TIME ( #154, #32 ) ;
#119 = VECTOR ( 'NONE', #84, 1000.000000000000000 ) ;
#120 = PERSON_AND_ORGANIZATION ( #209, #73 ) ;
#121 = DIRECTION ( 'NONE',  ( 0.0000000000000000000, 0.0000000000000000000, -1.000000000000000000 ) ) ;
#122 = ADVANCED_FACE ( 'NONE', ( #77 ), #95, .F. ) ;
#123 = EDGE_CURVE ( 'NONE', #236, #97, #211, .T. ) ;
#124 = DATE_AND_TIME ( #233, #157 ) ;
#125 = EDGE_CURVE ( 'NONE', #58, #214, #71, .T. ) ;
#126 = VERTEX_POINT ( 'NONE', #7 ) ;
#127 = APPROVAL_STATUS ( 'not_yet_approved' ) ;
#128 = ORIENTED_EDGE ( 'NONE', *, *, #184, .T. ) ;
#129 = CALENDAR_DATE ( 2021, 11, 3 ) ;
#130 = ORIENTED_EDGE ( 'NONE', *, *, #15, .F. ) ;
#131 = EDGE_CURVE ( 'NONE', #236, #104, #179, .T. ) ;
#132 = APPROVAL_PERSON_ORGANIZATION ( #94, #32, #177 ) ;
#133 = DIRECTION ( 'NONE',  ( -1.000000000000000000, 0.0000000000000000000, 0.0000000000000000000 ) ) ;
#134 = DIRECTION ( 'NONE',  ( 0.0000000000000000000, 0.0000000000000000000, -1.000000000000000000 ) ) ;
#135 = LOCAL_TIME ( 15, 24, 32.00000000000000000, #45 ) ;
#136 = AXIS2_PLACEMENT_3D ( 'NONE', #17, #215, #42 ) ;
#137 = DIRECTION ( 'NONE',  ( -1.000000000000000000, 0.0000000000000000000, -0.0000000000000000000 ) ) ;
#138 = ORIENTED_EDGE ( 'NONE', *, *, #59, .T. ) ;
#139 = COORDINATED_UNIVERSAL_TIME_OFFSET ( 5, 0, .BEHIND. ) ;
#140 = PERSON_AND_ORGANIZATION ( #209, #73 ) ;
#141 = DATE_TIME_ROLE ( 'creation_date' ) ;
#142 = VERTEX_POINT ( 'NONE', #52 ) ;
#143 = VECTOR ( 'NONE', #2, 1000.000000000000000 ) ;
#144 = LOCAL_TIME ( 15, 24, 32.00000000000000000, #139 ) ;
#145 = LINE ( 'NONE', #101, #3 ) ;
#146 = EDGE_LOOP ( 'NONE', ( #81, #225, #66, #33 ) ) ;
#147 = APPLICATION_PROTOCOL_DEFINITION ( 'international standard', 'config_control_design', 1994, #182 ) ;
#148 = ADVANCED_BREP_SHAPE_REPRESENTATION ( 'Web Model Lightsmyth Gratings_16864', ( #213, #6 ), #161 ) ;
#149 = CARTESIAN_POINT ( 'NONE',  ( 0.0000000000000000000, 0.0000000000000000000, 0.0000000000000000000 ) ) ;
#150 = CLOSED_SHELL ( 'NONE', ( #122, #12, #48, #8, #103, #23 ) ) ;
#151 = PERSON_AND_ORGANIZATION ( #209, #73 ) ;
#152 = VECTOR ( 'NONE', #83, 1000.000000000000000 ) ;
#153 = CARTESIAN_POINT ( 'NONE',  ( 15.90000000000000391, -12.40000000000000036, 0.0000000000000000000 ) ) ;
#154 = DATE_AND_TIME ( #175, #190 ) ;
#155 = APPROVAL ( #69, 'UNSPECIFIED' ) ;
#156 = EDGE_LOOP ( 'NONE', ( #29, #14, #202, #205 ) ) ;
#157 = LOCAL_TIME ( 15, 24, 32.00000000000000000, #72 ) ;
#158 = PERSON_AND_ORGANIZATION ( #209, #73 ) ;
#159 = APPROVAL_ROLE ( '' ) ;
#160 = VERTEX_POINT ( 'NONE', #27 ) ;
#161 =( GEOMETRIC_REPRESENTATION_CONTEXT ( 3 ) GLOBAL_UNCERTAINTY_ASSIGNED_CONTEXT ( ( #99 ) ) GLOBAL_UNIT_ASSIGNED_CONTEXT ( ( #26, #21, #78 ) ) REPRESENTATION_CONTEXT ( 'NONE', 'WORKASPACE' ) );
#162 = SHAPE_DEFINITION_REPRESENTATION ( #30, #148 ) ;
#163 = FACE_OUTER_BOUND ( 'NONE', #195, .T. ) ;
#164 = CC_DESIGN_DATE_AND_TIME_ASSIGNMENT ( #67, #141, ( #98 ) ) ;
#165 = ORIENTED_EDGE ( 'NONE', *, *, #39, .F. ) ;
#166 = CARTESIAN_POINT ( 'NONE',  ( 15.90000000000000391, -12.40000000000000036, 0.0000000000000000000 ) ) ;
#167 = DIRECTION ( 'NONE',  ( -1.000000000000000000, 0.0000000000000000000, -0.0000000000000000000 ) ) ;
#168 = MECHANICAL_CONTEXT ( 'NONE', #182, 'mechanical' ) ;
#169 = DIRECTION ( 'NONE',  ( 0.0000000000000000000, 0.0000000000000000000, -1.000000000000000000 ) ) ;
#170 = VECTOR ( 'NONE', #217, 1000.000000000000000 ) ;
#171 = CARTESIAN_POINT ( 'NONE',  ( -15.89999999999999680, -12.40000000000000036, 0.0000000000000000000 ) ) ;
#172 = DIRECTION ( 'NONE',  ( -0.0000000000000000000, -0.0000000000000000000, -1.000000000000000000 ) ) ;
#173 = CARTESIAN_POINT ( 'NONE',  ( 15.90000000000000391, 12.40000000000000213, 0.9499999999999999556 ) ) ;
#174 = CARTESIAN_POINT ( 'NONE',  ( -15.89999999999999680, -12.40000000000000036, 0.9499999999999999556 ) ) ;
#175 = CALENDAR_DATE ( 2021, 11, 3 ) ;
#176 = AXIS2_PLACEMENT_3D ( 'NONE', #149, #134, #167 ) ;
#177 = APPROVAL_ROLE ( '' ) ;
#178 = CC_DESIGN_SECURITY_CLASSIFICATION ( #76, ( #46 ) ) ;
#179 = LINE ( 'NONE', #47, #201 ) ;
#180 = ORIENTED_EDGE ( 'NONE', *, *, #1, .T. ) ;
#181 = ORIENTED_EDGE ( 'NONE', *, *, #194, .T. ) ;
#182 = APPLICATION_CONTEXT ( 'configuration controlled 3d designs of mechanical parts and assemblies' ) ;
#183 = CARTESIAN_POINT ( 'NONE',  ( -15.89999999999999680, -12.40000000000000036, 0.9499999999999999556 ) ) ;
#184 = EDGE_CURVE ( 'NONE', #142, #126, #114, .T. ) ;
#185 = DIRECTION ( 'NONE',  ( 1.000000000000000000, 0.0000000000000000000, 0.0000000000000000000 ) ) ;
#186 = CARTESIAN_POINT ( 'NONE',  ( 15.90000000000000391, -12.40000000000000036, 0.9499999999999999556 ) ) ;
#187 = CARTESIAN_POINT ( 'NONE',  ( -15.89999999999999680, -12.40000000000000036, 0.9499999999999999556 ) ) ;
#188 = LINE ( 'NONE', #25, #170 ) ;
#189 = DIRECTION ( 'NONE',  ( -0.0000000000000000000, -0.0000000000000000000, -1.000000000000000000 ) ) ;
#190 = LOCAL_TIME ( 15, 24, 32.00000000000000000, #219 ) ;
#191 = AXIS2_PLACEMENT_3D ( 'NONE', #117, #133, #203 ) ;
#192 = VECTOR ( 'NONE', #65, 1000.000000000000000 ) ;
#193 = CALENDAR_DATE ( 2021, 11, 3 ) ;
#194 = EDGE_CURVE ( 'NONE', #142, #214, #228, .T. ) ;
#195 = EDGE_LOOP ( 'NONE', ( #180, #128, #138, #75 ) ) ;
#196 = PRODUCT ( 'Web Model Lightsmyth Gratings_16864', 'Web Model Lightsmyth Gratings_16864', '', ( #168 ) ) ;
#197 = LINE ( 'NONE', #171, #192 ) ;
#198 = PLANE ( 'NONE',  #230 ) ;
#199 = EDGE_LOOP ( 'NONE', ( #85, #20, #165, #55 ) ) ;
#200 = ORIENTED_EDGE ( 'NONE', *, *, #194, .F. ) ;
#201 = VECTOR ( 'NONE', #68, 1000.000000000000000 ) ;
#202 = ORIENTED_EDGE ( 'NONE', *, *, #131, .F. ) ;
#203 = DIRECTION ( 'NONE',  ( 0.0000000000000000000, 0.0000000000000000000, 1.000000000000000000 ) ) ;
#204 = CARTESIAN_POINT ( 'NONE',  ( -15.89999999999999680, 12.40000000000000213, 0.9499999999999999556 ) ) ;
#205 = ORIENTED_EDGE ( 'NONE', *, *, #123, .T. ) ;
#206 = CC_DESIGN_PERSON_AND_ORGANIZATION_ASSIGNMENT ( #158, #88, ( #98 ) ) ;
#207 = VECTOR ( 'NONE', #223, 1000.000000000000000 ) ;
#208 = APPROVAL_ROLE ( '' ) ;
#209 = PERSON ( 'UNSPECIFIED', 'UNSPECIFIED', 'UNSPECIFIED', ('UNSPECIFIED'), ('UNSPECIFIED'), ('UNSPECIFIED') ) ;
#210 = APPROVAL_STATUS ( 'not_yet_approved' ) ;
#211 = LINE ( 'NONE', #174, #119 ) ;
#212 = EDGE_LOOP ( 'NONE', ( #109, #130, #112, #181 ) ) ;
#213 = MANIFOLD_SOLID_BREP ( 'Boss-Extrude1', #150 ) ;
#214 = VERTEX_POINT ( 'NONE', #106 ) ;
#215 = DIRECTION ( 'NONE',  ( 0.0000000000000000000, 1.000000000000000000, 0.0000000000000000000 ) ) ;
#216 = DATE_AND_TIME ( #193, #92 ) ;
#217 = DIRECTION ( 'NONE',  ( 1.000000000000000000, 0.0000000000000000000, 0.0000000000000000000 ) ) ;
#218 = PERSON_AND_ORGANIZATION_ROLE ( 'design_owner' ) ;
#219 = COORDINATED_UNIVERSAL_TIME_OFFSET ( 5, 0, .BEHIND. ) ;
#220 = DIRECTION ( 'NONE',  ( 0.0000000000000000000, -1.000000000000000000, 0.0000000000000000000 ) ) ;
#221 = CC_DESIGN_PERSON_AND_ORGANIZATION_ASSIGNMENT ( #108, #31, ( #46 ) ) ;
#222 = FACE_OUTER_BOUND ( 'NONE', #156, .T. ) ;
#223 = DIRECTION ( 'NONE',  ( -0.0000000000000000000, -1.000000000000000000, -0.0000000000000000000 ) ) ;
#224 = CARTESIAN_POINT ( 'NONE',  ( -15.89999999999999680, -12.40000000000000036, 0.9499999999999999556 ) ) ;
#225 = ORIENTED_EDGE ( 'NONE', *, *, #123, .F. ) ;
#226 = DATE_AND_TIME ( #37, #144 ) ;
#227 = EDGE_CURVE ( 'NONE', #104, #58, #91, .T. ) ;
#228 = LINE ( 'NONE', #173, #53 ) ;
#229 = ORIENTED_EDGE ( 'NONE', *, *, #125, .T. ) ;
#230 = AXIS2_PLACEMENT_3D ( 'NONE', #96, #220, #4 ) ;
#231 = APPROVAL_PERSON_ORGANIZATION ( #110, #70, #208 ) ;
#232 = PERSON_AND_ORGANIZATION_ROLE ( 'creator' ) ;
#233 = CALENDAR_DATE ( 2021, 11, 3 ) ;
#234 = CC_DESIGN_APPROVAL ( #32, ( #76 ) ) ;
#235 = ORIENTED_EDGE ( 'NONE', *, *, #1, .F. ) ;
#236 = VERTEX_POINT ( 'NONE', #224 ) ;
#237 = APPROVAL_DATE_TIME ( #216, #155 ) ;
ENDSEC;
END-ISO-10303-21;
