ISO-10303-21;
HEADER;
FILE_DESCRIPTION (( 'STEP AP214' ),
    '1' );
FILE_NAME ('4417-E0W.STEP',
    '2009-12-21T17:00:27',
    ( ' ' ),
    ( ' ' ),
    'SwSTEP 2.0',
    'SolidWorks 2009',
    '' );
FILE_SCHEMA (( 'AUTOMOTIVE_DESIGN' ));
ENDSEC;

DATA;
#1 = EDGE_CURVE ( 'NONE', #17, #4, #106, .T. ) ;
#2 = ORIENTED_EDGE ( 'NONE', *, *, #41, .T. ) ;
#3 = ORIENTED_EDGE ( 'NONE', *, *, #1, .T. ) ;
#4 = VERTEX_POINT ( 'NONE', #99 ) ;
#5 = ADVANCED_FACE ( 'NONE', ( #85 ), #100, .T. ) ;
#6 = EDGE_LOOP ( 'NONE', ( #19, #11, #9, #23, #13 ) ) ;
#7 = ADVANCED_FACE ( 'NONE', ( #84 ), #116, .T. ) ;
#8 = EDGE_LOOP ( 'NONE', ( #10, #3, #2, #43 ) ) ;
#9 = ORIENTED_EDGE ( 'NONE', *, *, #21, .F. ) ;
#10 = ORIENTED_EDGE ( 'NONE', *, *, #21, .T. ) ;
#11 = ORIENTED_EDGE ( 'NONE', *, *, #15, .T. ) ;
#12 = VERTEX_POINT ( 'NONE', #57 ) ;
#13 = ORIENTED_EDGE ( 'NONE', *, *, #20, .F. ) ;
#14 = EDGE_CURVE ( 'NONE', #18, #12, #95, .T. ) ;
#15 = EDGE_CURVE ( 'NONE', #12, #17, #96, .T. ) ;
#16 = EDGE_CURVE ( 'NONE', #25, #22, #105, .T. ) ;
#17 = VERTEX_POINT ( 'NONE', #69 ) ;
#18 = VERTEX_POINT ( 'NONE', #68 ) ;
#19 = ORIENTED_EDGE ( 'NONE', *, *, #14, .T. ) ;
#20 = EDGE_CURVE ( 'NONE', #18, #25, #28, .T. ) ;
#21 = EDGE_CURVE ( 'NONE', #22, #17, #147, .T. ) ;
#22 = VERTEX_POINT ( 'NONE', #139 ) ;
#23 = ORIENTED_EDGE ( 'NONE', *, *, #16, .F. ) ;
#24 = MANIFOLD_SOLID_BREP ( 'NONE', #51 ) ;
#25 = VERTEX_POINT ( 'NONE', #132 ) ;
#26 =( GEOMETRIC_REPRESENTATION_CONTEXT ( 3 ) GLOBAL_UNCERTAINTY_ASSIGNED_CONTEXT ( ( #192 ) ) GLOBAL_UNIT_ASSIGNED_CONTEXT ( ( #149, #157, #193 ) ) REPRESENTATION_CONTEXT ( 'NONE', 'WORKASPACE' ) );
#27 = CARTESIAN_POINT ( 'NONE',  ( 6.350000000000001400, 0.0000000000000000000, 4.308132045400366600 ) ) ;
#28 = LINE ( 'NONE', #27, #30 ) ;
#29 = DIRECTION ( 'NONE',  ( -0.0000000000000000000, -0.0000000000000000000, 1.000000000000000000 ) ) ;
#30 = VECTOR ( 'NONE', #29, 1000.000000000000000 ) ;
#31 = ORIENTED_EDGE ( 'NONE', *, *, #41, .F. ) ;
#32 = EDGE_CURVE ( 'NONE', #4, #25, #133, .T. ) ;
#33 = ORIENTED_EDGE ( 'NONE', *, *, #16, .T. ) ;
#34 = ORIENTED_EDGE ( 'NONE', *, *, #15, .F. ) ;
#35 = EDGE_LOOP ( 'NONE', ( #34, #49, #46, #40, #38 ) ) ;
#36 = EDGE_CURVE ( 'NONE', #12, #18, #160, .T. ) ;
#37 = EDGE_LOOP ( 'NONE', ( #53, #39 ) ) ;
#38 = ORIENTED_EDGE ( 'NONE', *, *, #1, .F. ) ;
#39 = ORIENTED_EDGE ( 'NONE', *, *, #36, .F. ) ;
#40 = ORIENTED_EDGE ( 'NONE', *, *, #32, .F. ) ;
#41 = EDGE_CURVE ( 'NONE', #4, #42, #156, .T. ) ;
#42 = VERTEX_POINT ( 'NONE', #164 ) ;
#43 = ORIENTED_EDGE ( 'NONE', *, *, #44, .F. ) ;
#44 = EDGE_CURVE ( 'NONE', #22, #42, #135, .T. ) ;
#45 = ORIENTED_EDGE ( 'NONE', *, *, #32, .T. ) ;
#46 = ORIENTED_EDGE ( 'NONE', *, *, #20, .T. ) ;
#47 = ADVANCED_FACE ( 'NONE', ( #136 ), #127, .T. ) ;
#48 = ADVANCED_FACE ( 'NONE', ( #129 ), #206, .T. ) ;
#49 = ORIENTED_EDGE ( 'NONE', *, *, #36, .T. ) ;
#50 = EDGE_LOOP ( 'NONE', ( #31, #45, #33, #54 ) ) ;
#51 = CLOSED_SHELL ( 'NONE', ( #5, #7, #48, #47, #52 ) ) ;
#52 = ADVANCED_FACE ( 'NONE', ( #203 ), #224, .F. ) ;
#53 = ORIENTED_EDGE ( 'NONE', *, *, #14, .F. ) ;
#54 = ORIENTED_EDGE ( 'NONE', *, *, #44, .T. ) ;
#55 = DIRECTION ( 'NONE',  ( -0.0000000000000000000, -0.0000000000000000000, 1.000000000000000000 ) ) ;
#56 = FILL_AREA_STYLE_COLOUR ( '', #67 ) ;
#57 = CARTESIAN_POINT ( 'NONE',  ( -6.350000000000000500, 7.776250346772096400E-016, -2.559999999999999600 ) ) ;
#58 = DIRECTION ( 'NONE',  ( 0.0000000000000000000, 1.000000000000000000, 0.0000000000000000000 ) ) ;
#59 = DIRECTION ( 'NONE',  ( -1.000000000000000000, 0.0000000000000000000, 0.0000000000000000000 ) ) ;
#60 = CARTESIAN_POINT ( 'NONE',  ( 0.0000000000000000000, 0.0000000000000000000, -5.160000000000001000 ) ) ;
#61 = AXIS2_PLACEMENT_3D ( 'NONE', #60, #59, #58 ) ;
#62 =( NAMED_UNIT ( * ) SI_UNIT ( $, .STERADIAN. ) SOLID_ANGLE_UNIT ( ) );
#63 = UNCERTAINTY_MEASURE_WITH_UNIT (LENGTH_MEASURE( 1.000000000000000100E-005 ), #102, 'distance_accuracy_value', 'NONE');
#64 = SURFACE_STYLE_USAGE ( .BOTH. , #65 ) ;
#65 = SURFACE_SIDE_STYLE ('',( #66 ) ) ;
#66 = SURFACE_STYLE_FILL_AREA ( #91 ) ;
#67 = COLOUR_RGB ( '',0.9568627450980391500, 0.9490196078431372100, 0.9607843137254902200 ) ;
#68 = CARTESIAN_POINT ( 'NONE',  ( 6.350000000000000500, 0.0000000000000000000, -2.559999999999999600 ) ) ;
#69 = CARTESIAN_POINT ( 'NONE',  ( -6.350000000000001400, 7.776250346772097400E-016, -0.7695672195101319600 ) ) ;
#70 = DIRECTION ( 'NONE',  ( 1.000000000000000000, 0.0000000000000000000, 0.0000000000000000000 ) ) ;
#71 = DIRECTION ( 'NONE',  ( -0.0000000000000000000, -0.0000000000000000000, 1.000000000000000000 ) ) ;
#72 = CARTESIAN_POINT ( 'NONE',  ( 0.0000000000000000000, 0.0000000000000000000, -0.7695672195101319600 ) ) ;
#73 = MECHANICAL_DESIGN_GEOMETRIC_PRESENTATION_REPRESENTATION (  '', ( #75 ), #117 ) ;
#74 = PRESENTATION_LAYER_ASSIGNMENT (  '', '', ( #75 ) ) ;
#75 = STYLED_ITEM ( 'NONE', ( #76 ), #7 ) ;
#76 = PRESENTATION_STYLE_ASSIGNMENT (( #77 ) ) ;
#77 = SURFACE_STYLE_USAGE ( .BOTH. , #112 ) ;
#78 = CARTESIAN_POINT ( 'NONE',  ( 0.0000000000000000000, 0.0000000000000000000, 4.308132045400366600 ) ) ;
#79 = CARTESIAN_POINT ( 'NONE',  ( 0.0000000000000000000, 0.0000000000000000000, -0.7695672195101319600 ) ) ;
#80 = AXIS2_PLACEMENT_3D ( 'NONE', #79, #55, #103 ) ;
#81 =( GEOMETRIC_REPRESENTATION_CONTEXT ( 3 ) GLOBAL_UNCERTAINTY_ASSIGNED_CONTEXT ( ( #63 ) ) GLOBAL_UNIT_ASSIGNED_CONTEXT ( ( #102, #107, #101 ) ) REPRESENTATION_CONTEXT ( 'NONE', 'WORKASPACE' ) );
#82 = AXIS2_PLACEMENT_3D ( 'NONE', #78, #119, #118 ) ;
#83 = COLOUR_RGB ( '',0.9568627450980391500, 0.9490196078431372100, 0.9607843137254902200 ) ;
#84 = FACE_OUTER_BOUND ( 'NONE', #8, .T. ) ;
#85 = FACE_OUTER_BOUND ( 'NONE', #6, .T. ) ;
#86 = MECHANICAL_DESIGN_GEOMETRIC_PRESENTATION_REPRESENTATION (  '', ( #88 ), #81 ) ;
#87 = PRESENTATION_LAYER_ASSIGNMENT (  '', '', ( #88 ) ) ;
#88 = STYLED_ITEM ( 'NONE', ( #89 ), #5 ) ;
#89 = PRESENTATION_STYLE_ASSIGNMENT (( #64 ) ) ;
#90 =( NAMED_UNIT ( * ) PLANE_ANGLE_UNIT ( ) SI_UNIT ( $, .RADIAN. ) );
#91 = FILL_AREA_STYLE ('',( #56 ) ) ;
#92 = DIRECTION ( 'NONE',  ( -0.0000000000000000000, -0.0000000000000000000, 1.000000000000000000 ) ) ;
#93 = CARTESIAN_POINT ( 'NONE',  ( 0.0000000000000000000, 0.0000000000000000000, -2.559999999999999600 ) ) ;
#94 = AXIS2_PLACEMENT_3D ( 'NONE', #93, #92, #111 ) ;
#95 = CIRCLE ( 'NONE', #94, 6.350000000000000500 ) ;
#96 = LINE ( 'NONE', #110, #109 ) ;
#97 = UNCERTAINTY_MEASURE_WITH_UNIT (LENGTH_MEASURE( 1.000000000000000100E-005 ), #98, 'distance_accuracy_value', 'NONE');
#98 =( LENGTH_UNIT ( ) NAMED_UNIT ( * ) SI_UNIT ( .MILLI., .METRE. ) );
#99 = CARTESIAN_POINT ( 'NONE',  ( -7.776250346772097400E-016, -6.350000000000001400, -0.7695672195101319600 ) ) ;
#100 = CYLINDRICAL_SURFACE ( 'NONE', #82, 6.350000000000001400 ) ;
#101 =( NAMED_UNIT ( * ) SI_UNIT ( $, .STERADIAN. ) SOLID_ANGLE_UNIT ( ) );
#102 =( LENGTH_UNIT ( ) NAMED_UNIT ( * ) SI_UNIT ( .MILLI., .METRE. ) );
#103 = DIRECTION ( 'NONE',  ( 1.000000000000000000, 0.0000000000000000000, 0.0000000000000000000 ) ) ;
#104 = AXIS2_PLACEMENT_3D ( 'NONE', #72, #71, #70 ) ;
#105 = CIRCLE ( 'NONE', #104, 6.350000000000001400 ) ;
#106 = CIRCLE ( 'NONE', #80, 6.350000000000001400 ) ;
#107 =( NAMED_UNIT ( * ) PLANE_ANGLE_UNIT ( ) SI_UNIT ( $, .RADIAN. ) );
#108 = DIRECTION ( 'NONE',  ( -0.0000000000000000000, -0.0000000000000000000, 1.000000000000000000 ) ) ;
#109 = VECTOR ( 'NONE', #108, 1000.000000000000000 ) ;
#110 = CARTESIAN_POINT ( 'NONE',  ( -6.350000000000001400, 7.776250346772097400E-016, 4.308132045400366600 ) ) ;
#111 = DIRECTION ( 'NONE',  ( 1.000000000000000000, 0.0000000000000000000, 0.0000000000000000000 ) ) ;
#112 = SURFACE_SIDE_STYLE ('',( #113 ) ) ;
#113 = SURFACE_STYLE_FILL_AREA ( #114 ) ;
#114 = FILL_AREA_STYLE ('',( #115 ) ) ;
#115 = FILL_AREA_STYLE_COLOUR ( '', #83 ) ;
#116 = SPHERICAL_SURFACE ( 'NONE', #61, 7.720000000000001500 ) ;
#117 =( GEOMETRIC_REPRESENTATION_CONTEXT ( 3 ) GLOBAL_UNCERTAINTY_ASSIGNED_CONTEXT ( ( #97 ) ) GLOBAL_UNIT_ASSIGNED_CONTEXT ( ( #98, #90, #62 ) ) REPRESENTATION_CONTEXT ( 'NONE', 'WORKASPACE' ) );
#118 = DIRECTION ( 'NONE',  ( 1.000000000000000000, 0.0000000000000000000, 0.0000000000000000000 ) ) ;
#119 = DIRECTION ( 'NONE',  ( -0.0000000000000000000, -0.0000000000000000000, 1.000000000000000000 ) ) ;
#120 = SURFACE_SIDE_STYLE ('',( #140 ) ) ;
#121 = SURFACE_STYLE_USAGE ( .BOTH. , #120 ) ;
#122 = DIRECTION ( 'NONE',  ( 0.0000000000000000000, 0.0000000000000000000, -1.000000000000000000 ) ) ;
#123 = DIRECTION ( 'NONE',  ( 1.000000000000000000, 0.0000000000000000000, 0.0000000000000000000 ) ) ;
#124 = CARTESIAN_POINT ( 'NONE',  ( 0.0000000000000000000, 0.0000000000000000000, -5.160000000000001000 ) ) ;
#125 = AXIS2_PLACEMENT_3D ( 'NONE', #124, #123, #122 ) ;
#126 =( LENGTH_UNIT ( ) NAMED_UNIT ( * ) SI_UNIT ( .MILLI., .METRE. ) );
#127 = CYLINDRICAL_SURFACE ( 'NONE', #169, 6.350000000000001400 ) ;
#128 = COLOUR_RGB ( '',0.9568627450980391500, 0.9490196078431372100, 0.9607843137254902200 ) ;
#129 = FACE_OUTER_BOUND ( 'NONE', #50, .T. ) ;
#130 =( GEOMETRIC_REPRESENTATION_CONTEXT ( 3 ) GLOBAL_UNCERTAINTY_ASSIGNED_CONTEXT ( ( #170 ) ) GLOBAL_UNIT_ASSIGNED_CONTEXT ( ( #126, #191, #148 ) ) REPRESENTATION_CONTEXT ( 'NONE', 'WORKASPACE' ) );
#131 = UNCERTAINTY_MEASURE_WITH_UNIT (LENGTH_MEASURE( 1.000000000000000100E-005 ), #146, 'distance_accuracy_value', 'NONE');
#132 = CARTESIAN_POINT ( 'NONE',  ( 6.350000000000001400, 0.0000000000000000000, -0.7695672195101319600 ) ) ;
#133 = CIRCLE ( 'NONE', #196, 6.350000000000001400 ) ;
#134 = CARTESIAN_POINT ( 'NONE',  ( 0.0000000000000000000, 0.0000000000000000000, -2.559999999999999600 ) ) ;
#135 = CIRCLE ( 'NONE', #125, 7.720000000000001500 ) ;
#136 = FACE_OUTER_BOUND ( 'NONE', #35, .T. ) ;
#137 = PRESENTATION_STYLE_ASSIGNMENT (( #121 ) ) ;
#138 = FILL_AREA_STYLE_COLOUR ( '', #179 ) ;
#139 = CARTESIAN_POINT ( 'NONE',  ( 0.0000000000000000000, 6.350000000000001400, -0.7695672195101319600 ) ) ;
#140 = SURFACE_STYLE_FILL_AREA ( #198 ) ;
#141 = SURFACE_SIDE_STYLE ('',( #142 ) ) ;
#142 = SURFACE_STYLE_FILL_AREA ( #143 ) ;
#143 = FILL_AREA_STYLE ('',( #144 ) ) ;
#144 = FILL_AREA_STYLE_COLOUR ( '', #145 ) ;
#145 = COLOUR_RGB ( '',0.9568627450980391500, 0.9490196078431372100, 0.9607843137254902200 ) ;
#146 =( LENGTH_UNIT ( ) NAMED_UNIT ( * ) SI_UNIT ( .MILLI., .METRE. ) );
#147 = CIRCLE ( 'NONE', #197, 6.350000000000001400 ) ;
#148 =( NAMED_UNIT ( * ) SI_UNIT ( $, .STERADIAN. ) SOLID_ANGLE_UNIT ( ) );
#149 =( LENGTH_UNIT ( ) NAMED_UNIT ( * ) SI_UNIT ( .MILLI., .METRE. ) );
#150 = MECHANICAL_DESIGN_GEOMETRIC_PRESENTATION_REPRESENTATION (  '', ( #184 ), #26 ) ;
#151 = AXIS2_PLACEMENT_3D ( 'NONE', #134, #162, #161 ) ;
#152 = CARTESIAN_POINT ( 'NONE',  ( 0.0000000000000000000, 0.0000000000000000000, -5.160000000000001000 ) ) ;
#153 = DIRECTION ( 'NONE',  ( -1.224606353822377300E-016, -1.000000000000000000, 0.0000000000000000000 ) ) ;
#154 = DIRECTION ( 'NONE',  ( -1.000000000000000000, 1.224606353822377300E-016, 0.0000000000000000000 ) ) ;
#155 = AXIS2_PLACEMENT_3D ( 'NONE', #152, #154, #153 ) ;
#156 = CIRCLE ( 'NONE', #155, 7.720000000000001500 ) ;
#157 =( NAMED_UNIT ( * ) PLANE_ANGLE_UNIT ( ) SI_UNIT ( $, .RADIAN. ) );
#158 = DIRECTION ( 'NONE',  ( 1.000000000000000000, 0.0000000000000000000, 0.0000000000000000000 ) ) ;
#159 = DIRECTION ( 'NONE',  ( -0.0000000000000000000, -0.0000000000000000000, 1.000000000000000000 ) ) ;
#160 = CIRCLE ( 'NONE', #151, 6.350000000000000500 ) ;
#161 = DIRECTION ( 'NONE',  ( 1.000000000000000000, 0.0000000000000000000, 0.0000000000000000000 ) ) ;
#162 = DIRECTION ( 'NONE',  ( -0.0000000000000000000, -0.0000000000000000000, 1.000000000000000000 ) ) ;
#163 = CARTESIAN_POINT ( 'NONE',  ( 0.0000000000000000000, 0.0000000000000000000, -0.7695672195101319600 ) ) ;
#164 = CARTESIAN_POINT ( 'NONE',  ( 0.0000000000000000000, 4.726980525754377100E-016, 2.559999999999999600 ) ) ;
#165 = FILL_AREA_STYLE_COLOUR ( '', #128 ) ;
#166 = DIRECTION ( 'NONE',  ( 1.000000000000000000, 0.0000000000000000000, 0.0000000000000000000 ) ) ;
#167 = DIRECTION ( 'NONE',  ( -0.0000000000000000000, -0.0000000000000000000, 1.000000000000000000 ) ) ;
#168 = CARTESIAN_POINT ( 'NONE',  ( 0.0000000000000000000, 0.0000000000000000000, 4.308132045400366600 ) ) ;
#169 = AXIS2_PLACEMENT_3D ( 'NONE', #168, #167, #166 ) ;
#170 = UNCERTAINTY_MEASURE_WITH_UNIT (LENGTH_MEASURE( 1.000000000000000100E-005 ), #126, 'distance_accuracy_value', 'NONE');
#171 = MECHANICAL_DESIGN_GEOMETRIC_PRESENTATION_REPRESENTATION (  '', ( #173 ), #182 ) ;
#172 = PRESENTATION_LAYER_ASSIGNMENT (  '', '', ( #173 ) ) ;
#173 = STYLED_ITEM ( 'NONE', ( #174 ), #47 ) ;
#174 = PRESENTATION_STYLE_ASSIGNMENT (( #175 ) ) ;
#175 = SURFACE_STYLE_USAGE ( .BOTH. , #141 ) ;
#176 =( NAMED_UNIT ( * ) PLANE_ANGLE_UNIT ( ) SI_UNIT ( $, .RADIAN. ) );
#177 =( NAMED_UNIT ( * ) SI_UNIT ( $, .STERADIAN. ) SOLID_ANGLE_UNIT ( ) );
#178 = STYLED_ITEM ( 'NONE', ( #137 ), #24 ) ;
#179 = COLOUR_RGB ( '',0.7960784313725489700, 0.8235294117647058400, 0.9372549019607843100 ) ;
#180 = DIRECTION ( 'NONE',  ( 1.000000000000000000, 0.0000000000000000000, 0.0000000000000000000 ) ) ;
#181 = PRESENTATION_LAYER_ASSIGNMENT (  '', '', ( #178 ) ) ;
#182 =( GEOMETRIC_REPRESENTATION_CONTEXT ( 3 ) GLOBAL_UNCERTAINTY_ASSIGNED_CONTEXT ( ( #131 ) ) GLOBAL_UNIT_ASSIGNED_CONTEXT ( ( #146, #176, #177 ) ) REPRESENTATION_CONTEXT ( 'NONE', 'WORKASPACE' ) );
#183 = PRESENTATION_LAYER_ASSIGNMENT (  '', '', ( #184 ) ) ;
#184 = STYLED_ITEM ( 'NONE', ( #185 ), #48 ) ;
#185 = PRESENTATION_STYLE_ASSIGNMENT (( #186 ) ) ;
#186 = SURFACE_STYLE_USAGE ( .BOTH. , #187 ) ;
#187 = SURFACE_SIDE_STYLE ('',( #188 ) ) ;
#188 = SURFACE_STYLE_FILL_AREA ( #189 ) ;
#189 = FILL_AREA_STYLE ('',( #165 ) ) ;
#190 = MECHANICAL_DESIGN_GEOMETRIC_PRESENTATION_REPRESENTATION (  '', ( #178 ), #130 ) ;
#191 =( NAMED_UNIT ( * ) PLANE_ANGLE_UNIT ( ) SI_UNIT ( $, .RADIAN. ) );
#192 = UNCERTAINTY_MEASURE_WITH_UNIT (LENGTH_MEASURE( 1.000000000000000100E-005 ), #149, 'distance_accuracy_value', 'NONE');
#193 =( NAMED_UNIT ( * ) SI_UNIT ( $, .STERADIAN. ) SOLID_ANGLE_UNIT ( ) );
#194 = DIRECTION ( 'NONE',  ( -0.0000000000000000000, -0.0000000000000000000, 1.000000000000000000 ) ) ;
#195 = CARTESIAN_POINT ( 'NONE',  ( 0.0000000000000000000, 0.0000000000000000000, -0.7695672195101319600 ) ) ;
#196 = AXIS2_PLACEMENT_3D ( 'NONE', #195, #194, #180 ) ;
#197 = AXIS2_PLACEMENT_3D ( 'NONE', #163, #159, #158 ) ;
#198 = FILL_AREA_STYLE ('',( #138 ) ) ;
#199 = AXIS2_PLACEMENT_3D ( 'NONE', #201, #200, #205 ) ;
#200 = DIRECTION ( 'NONE',  ( -1.000000000000000000, 0.0000000000000000000, 0.0000000000000000000 ) ) ;
#201 = CARTESIAN_POINT ( 'NONE',  ( 0.0000000000000000000, 0.0000000000000000000, -5.160000000000001000 ) ) ;
#202 = COLOUR_RGB ( '',0.9568627450980391500, 0.9490196078431372100, 0.9607843137254902200 ) ;
#203 = FACE_OUTER_BOUND ( 'NONE', #37, .T. ) ;
#204 = FILL_AREA_STYLE_COLOUR ( '', #202 ) ;
#205 = DIRECTION ( 'NONE',  ( 0.0000000000000000000, 1.000000000000000000, 0.0000000000000000000 ) ) ;
#206 = SPHERICAL_SURFACE ( 'NONE', #199, 7.720000000000001500 ) ;
#207 = MECHANICAL_DESIGN_GEOMETRIC_PRESENTATION_REPRESENTATION (  '', ( #209 ), #241 ) ;
#208 = PRESENTATION_LAYER_ASSIGNMENT (  '', '', ( #209 ) ) ;
#209 = STYLED_ITEM ( 'NONE', ( #212 ), #52 ) ;
#210 =( NAMED_UNIT ( * ) PLANE_ANGLE_UNIT ( ) SI_UNIT ( $, .RADIAN. ) );
#211 =( LENGTH_UNIT ( ) NAMED_UNIT ( * ) SI_UNIT ( .MILLI., .METRE. ) );
#212 = PRESENTATION_STYLE_ASSIGNMENT (( #213 ) ) ;
#213 = SURFACE_STYLE_USAGE ( .BOTH. , #214 ) ;
#214 = SURFACE_SIDE_STYLE ('',( #215 ) ) ;
#215 = SURFACE_STYLE_FILL_AREA ( #216 ) ;
#216 = FILL_AREA_STYLE ('',( #204 ) ) ;
#217 = UNCERTAINTY_MEASURE_WITH_UNIT (LENGTH_MEASURE( 1.000000000000000100E-005 ), #211, 'distance_accuracy_value', 'NONE');
#218 =( NAMED_UNIT ( * ) SI_UNIT ( $, .STERADIAN. ) SOLID_ANGLE_UNIT ( ) );
#219 = ADVANCED_BREP_SHAPE_REPRESENTATION ( '4417-E0W', ( #24, #242 ), #245 ) ;
#220 = DIRECTION ( 'NONE',  ( 1.000000000000000000, 0.0000000000000000000, 0.0000000000000000000 ) ) ;
#221 = DIRECTION ( 'NONE',  ( 0.0000000000000000000, 0.0000000000000000000, 1.000000000000000000 ) ) ;
#222 =( NAMED_UNIT ( * ) PLANE_ANGLE_UNIT ( ) SI_UNIT ( $, .RADIAN. ) );
#223 = CARTESIAN_POINT ( 'NONE',  ( 0.0000000000000000000, 9.405287417451671500E-016, -2.560000000000000100 ) ) ;
#224 = PLANE ( 'NONE',  #228 ) ;
#225 =( NAMED_UNIT ( * ) SI_UNIT ( $, .STERADIAN. ) SOLID_ANGLE_UNIT ( ) );
#226 =( NAMED_UNIT ( * ) SI_UNIT ( $, .STERADIAN. ) SOLID_ANGLE_UNIT ( ) );
#227 = UNCERTAINTY_MEASURE_WITH_UNIT (LENGTH_MEASURE( 1.000000000000000100E-005 ), #243, 'distance_accuracy_value', 'NONE');
#228 = AXIS2_PLACEMENT_3D ( 'NONE', #223, #249, #248 ) ;
#229 = CARTESIAN_POINT ( 'NONE',  ( 0.0000000000000000000, 0.0000000000000000000, 0.0000000000000000000 ) ) ;
#230 = SURFACE_SIDE_STYLE ('',( #231 ) ) ;
#231 = SURFACE_STYLE_FILL_AREA ( #232 ) ;
#232 = FILL_AREA_STYLE ('',( #233 ) ) ;
#233 = FILL_AREA_STYLE_COLOUR ( '', #234 ) ;
#234 = COLOUR_RGB ( '',0.7960784313725489700, 0.8235294117647058400, 0.9372549019607843100 ) ;
#235 = UNCERTAINTY_MEASURE_WITH_UNIT (LENGTH_MEASURE( 1.000000000000000100E-005 ), #246, 'distance_accuracy_value', 'NONE');
#236 =( NAMED_UNIT ( * ) PLANE_ANGLE_UNIT ( ) SI_UNIT ( $, .RADIAN. ) );
#237 = PRESENTATION_LAYER_ASSIGNMENT (  '', '', ( #238 ) ) ;
#238 = STYLED_ITEM ( 'NONE', ( #239 ), #219 ) ;
#239 = PRESENTATION_STYLE_ASSIGNMENT (( #240 ) ) ;
#240 = SURFACE_STYLE_USAGE ( .BOTH. , #230 ) ;
#241 =( GEOMETRIC_REPRESENTATION_CONTEXT ( 3 ) GLOBAL_UNCERTAINTY_ASSIGNED_CONTEXT ( ( #217 ) ) GLOBAL_UNIT_ASSIGNED_CONTEXT ( ( #211, #210, #218 ) ) REPRESENTATION_CONTEXT ( 'NONE', 'WORKASPACE' ) );
#242 = AXIS2_PLACEMENT_3D ( 'NONE', #229, #221, #220 ) ;
#243 =( LENGTH_UNIT ( ) NAMED_UNIT ( * ) SI_UNIT ( .MILLI., .METRE. ) );
#244 =( GEOMETRIC_REPRESENTATION_CONTEXT ( 3 ) GLOBAL_UNCERTAINTY_ASSIGNED_CONTEXT ( ( #235 ) ) GLOBAL_UNIT_ASSIGNED_CONTEXT ( ( #246, #222, #225 ) ) REPRESENTATION_CONTEXT ( 'NONE', 'WORKASPACE' ) );
#245 =( GEOMETRIC_REPRESENTATION_CONTEXT ( 3 ) GLOBAL_UNCERTAINTY_ASSIGNED_CONTEXT ( ( #227 ) ) GLOBAL_UNIT_ASSIGNED_CONTEXT ( ( #243, #236, #226 ) ) REPRESENTATION_CONTEXT ( 'NONE', 'WORKASPACE' ) );
#246 =( LENGTH_UNIT ( ) NAMED_UNIT ( * ) SI_UNIT ( .MILLI., .METRE. ) );
#247 = MECHANICAL_DESIGN_GEOMETRIC_PRESENTATION_REPRESENTATION (  '', ( #238 ), #244 ) ;
#248 = DIRECTION ( 'NONE',  ( 1.000000000000000000, 0.0000000000000000000, 0.0000000000000000000 ) ) ;
#249 = DIRECTION ( 'NONE',  ( 0.0000000000000000000, -0.0000000000000000000, 1.000000000000000000 ) ) ;
#250 = PRODUCT_DEFINITION_FORMATION_WITH_SPECIFIED_SOURCE ( 'ANY', '', #258, .NOT_KNOWN. ) ;
#251 = PRODUCT_DEFINITION ( 'UNKNOWN', '', #250, #252 ) ;
#252 = PRODUCT_DEFINITION_CONTEXT ( 'detailed design', #257, 'design' ) ;
#253 = APPLICATION_PROTOCOL_DEFINITION ( 'draft international standard', 'automotive_design', 1998, #257 ) ;
#254 = PRODUCT_RELATED_PRODUCT_CATEGORY ( 'part', '', ( #258 ) ) ;
#255 = APPLICATION_CONTEXT ( 'automotive_design' ) ;
#256 = PRODUCT_DEFINITION_SHAPE ( 'NONE', 'NONE',  #251 ) ;
#257 = APPLICATION_CONTEXT ( 'automotive_design' ) ;
#258 = PRODUCT ( '4417-E0W', '4417-E0W', '', ( #259 ) ) ;
#259 = PRODUCT_CONTEXT ( 'NONE', #255, 'mechanical' ) ;
#260 = APPLICATION_PROTOCOL_DEFINITION ( 'draft international standard', 'automotive_design', 1998, #255 ) ;
#261 = SHAPE_DEFINITION_REPRESENTATION ( #256, #219 ) ;
ENDSEC;
END-ISO-10303-21;
