ISO-10303-21;
HEADER;
FILE_DESCRIPTION (( 'STEP AP203' ),
    '1' );
FILE_NAME ('87701.STEP',
    '2013-04-03T17:27:21',
    ( '' ),
    ( '' ),
    'SwSTEP 2.0',
    'SolidWorks 2011',
    '' );
FILE_SCHEMA (( 'CONFIG_CONTROL_DESIGN' ));
ENDSEC;

DATA;
#1 = APPROVAL_PERSON_ORGANIZATION ( #61, #117, #39 ) ;
#2 = APPROVAL_PERSON_ORGANIZATION ( #91, #124, #109 ) ;
#3 = LOCAL_TIME ( 10, 27, 21.00000000000000000, #92 ) ;
#4 = CIRCLE ( 'NONE', #21, 12.50000000000000000 ) ;
#5 = CIRCLE ( 'NONE', #9, 12.50000000000000000 ) ;
#6 = APPROVAL_PERSON_ORGANIZATION ( #52, #121, #74 ) ;
#7 = CC_DESIGN_SECURITY_CLASSIFICATION ( #16, ( #24 ) ) ;
#8 = LOCAL_TIME ( 10, 27, 21.00000000000000000, #107 ) ;
#9 = AXIS2_PLACEMENT_3D ( 'NONE', #28, #85, #59 ) ;
#10 = LOCAL_TIME ( 10, 27, 21.00000000000000000, #35 ) ;
#11 = CLOSED_SHELL ( 'NONE', ( #126, #131, #123 ) ) ;
#12 = ORGANIZATION ( 'UNSPECIFIED', 'UNSPECIFIED', '' ) ;
#13 = AXIS2_PLACEMENT_3D ( 'NONE', #26, #81, #55 ) ;
#14 =( GEOMETRIC_REPRESENTATION_CONTEXT ( 3 ) GLOBAL_UNCERTAINTY_ASSIGNED_CONTEXT ( ( #113 ) ) GLOBAL_UNIT_ASSIGNED_CONTEXT ( ( #54, #70, #46 ) ) REPRESENTATION_CONTEXT ( 'NONE', 'WORKASPACE' ) );
#15 = LOCAL_TIME ( 10, 27, 21.00000000000000000, #42 ) ;
#16 = SECURITY_CLASSIFICATION ( '', '', #99 ) ;
#17 = CC_DESIGN_APPROVAL ( #124, ( #24 ) ) ;
#18 = AXIS2_PLACEMENT_3D ( 'NONE', #51, #82, #86 ) ;
#19 = AXIS2_PLACEMENT_3D ( 'NONE', #67, #33, #29 ) ;
#20 = CC_DESIGN_APPROVAL ( #121, ( #16 ) ) ;
#21 = AXIS2_PLACEMENT_3D ( 'NONE', #41, #87, #102 ) ;
#22 = LOCAL_TIME ( 10, 27, 21.00000000000000000, #63 ) ;
#23 = CC_DESIGN_APPROVAL ( #117, ( #122 ) ) ;
#24 = PRODUCT_DEFINITION_FORMATION_WITH_SPECIFIED_SOURCE ( 'ANY', '', #112, .NOT_KNOWN. ) ;
#25 = AXIS2_PLACEMENT_3D ( 'NONE', #100, #45, #43 ) ;
#26 = CARTESIAN_POINT ( 'NONE',  ( 0.0000000000000000000, 0.0000000000000000000, 0.0000000000000000000 ) ) ;
#27 = SHAPE_DEFINITION_REPRESENTATION ( #114, #111 ) ;
#28 = CARTESIAN_POINT ( 'NONE',  ( 0.0000000000000000000, 0.0000000000000000000, -3.000000000000000000 ) ) ;
#29 = DIRECTION ( 'NONE',  ( 1.000000000000000000, 0.0000000000000000000, 0.0000000000000000000 ) ) ;
#30 = DATE_TIME_ROLE ( 'classification_date' ) ;
#31 = EDGE_LOOP ( 'NONE', ( #32 ) ) ;
#32 = ORIENTED_EDGE ( 'NONE', *, *, #132, .T. ) ;
#33 = DIRECTION ( 'NONE',  ( 0.0000000000000000000, 0.0000000000000000000, 1.000000000000000000 ) ) ;
#34 = FACE_OUTER_BOUND ( 'NONE', #73, .T. ) ;
#35 = COORDINATED_UNIVERSAL_TIME_OFFSET ( 7, 0, .BEHIND. ) ;
#36 = EDGE_LOOP ( 'NONE', ( #56 ) ) ;
#37 = MECHANICAL_CONTEXT ( 'NONE', #134, 'mechanical' ) ;
#38 = APPROVAL_STATUS ( 'not_yet_approved' ) ;
#39 = APPROVAL_ROLE ( '' ) ;
#40 = PERSON_AND_ORGANIZATION ( #110, #12 ) ;
#41 = CARTESIAN_POINT ( 'NONE',  ( 0.0000000000000000000, 0.0000000000000000000, 0.0000000000000000000 ) ) ;
#42 = COORDINATED_UNIVERSAL_TIME_OFFSET ( 7, 0, .BEHIND. ) ;
#43 = DIRECTION ( 'NONE',  ( 1.000000000000000000, 0.0000000000000000000, 0.0000000000000000000 ) ) ;
#44 = FACE_OUTER_BOUND ( 'NONE', #76, .T. ) ;
#45 = DIRECTION ( 'NONE',  ( 0.0000000000000000000, -0.0000000000000000000, 1.000000000000000000 ) ) ;
#46 =( NAMED_UNIT ( * ) SI_UNIT ( $, .STERADIAN. ) SOLID_ANGLE_UNIT ( ) );
#47 = APPLICATION_PROTOCOL_DEFINITION ( 'international standard', 'config_control_design', 1994, #135 ) ;
#48 = VERTEX_POINT ( 'NONE', #60 ) ;
#49 = VERTEX_POINT ( 'NONE', #98 ) ;
#50 = PERSON_AND_ORGANIZATION_ROLE ( 'design_owner' ) ;
#51 = CARTESIAN_POINT ( 'NONE',  ( 0.0000000000000000000, 0.0000000000000000000, 0.0000000000000000000 ) ) ;
#52 = PERSON_AND_ORGANIZATION ( #110, #12 ) ;
#53 = PERSON_AND_ORGANIZATION ( #110, #12 ) ;
#54 =( LENGTH_UNIT ( ) NAMED_UNIT ( * ) SI_UNIT ( .MILLI., .METRE. ) );
#55 = DIRECTION ( 'NONE',  ( 1.000000000000000000, 0.0000000000000000000, 0.0000000000000000000 ) ) ;
#56 = ORIENTED_EDGE ( 'NONE', *, *, #132, .F. ) ;
#57 = FACE_OUTER_BOUND ( 'NONE', #31, .T. ) ;
#58 = PLANE ( 'NONE',  #18 ) ;
#59 = DIRECTION ( 'NONE',  ( 1.000000000000000000, 0.0000000000000000000, 0.0000000000000000000 ) ) ;
#60 = CARTESIAN_POINT ( 'NONE',  ( 12.50000000000000000, 0.0000000000000000000, 0.0000000000000000000 ) ) ;
#61 = PERSON_AND_ORGANIZATION ( #110, #12 ) ;
#62 = PLANE ( 'NONE',  #25 ) ;
#63 = COORDINATED_UNIVERSAL_TIME_OFFSET ( 7, 0, .BEHIND. ) ;
#64 = PERSON_AND_ORGANIZATION ( #110, #12 ) ;
#65 = ORIENTED_EDGE ( 'NONE', *, *, #129, .T. ) ;
#66 = CALENDAR_DATE ( 2013, 3, 4 ) ;
#67 = CARTESIAN_POINT ( 'NONE',  ( 0.0000000000000000000, 0.0000000000000000000, 0.0000000000000000000 ) ) ;
#68 = DATE_TIME_ROLE ( 'creation_date' ) ;
#69 = DATE_AND_TIME ( #89, #10 ) ;
#70 =( NAMED_UNIT ( * ) PLANE_ANGLE_UNIT ( ) SI_UNIT ( $, .RADIAN. ) );
#71 = APPROVAL_DATE_TIME ( #72, #121 ) ;
#72 = DATE_AND_TIME ( #75, #3 ) ;
#73 = EDGE_LOOP ( 'NONE', ( #65 ) ) ;
#74 = APPROVAL_ROLE ( '' ) ;
#75 = CALENDAR_DATE ( 2013, 3, 4 ) ;
#76 = EDGE_LOOP ( 'NONE', ( #101 ) ) ;
#77 = CALENDAR_DATE ( 2013, 3, 4 ) ;
#78 = APPROVAL_STATUS ( 'not_yet_approved' ) ;
#79 = APPROVAL_STATUS ( 'not_yet_approved' ) ;
#80 = APPLICATION_PROTOCOL_DEFINITION ( 'international standard', 'config_control_design', 1994, #134 ) ;
#81 = DIRECTION ( 'NONE',  ( -0.0000000000000000000, -0.0000000000000000000, 1.000000000000000000 ) ) ;
#82 = DIRECTION ( 'NONE',  ( 0.0000000000000000000, 0.0000000000000000000, -1.000000000000000000 ) ) ;
#83 = DATE_AND_TIME ( #66, #22 ) ;
#84 = PERSON_AND_ORGANIZATION_ROLE ( 'classification_officer' ) ;
#85 = DIRECTION ( 'NONE',  ( -0.0000000000000000000, -0.0000000000000000000, 1.000000000000000000 ) ) ;
#86 = DIRECTION ( 'NONE',  ( -1.000000000000000000, 0.0000000000000000000, -0.0000000000000000000 ) ) ;
#87 = DIRECTION ( 'NONE',  ( -0.0000000000000000000, -0.0000000000000000000, 1.000000000000000000 ) ) ;
#88 = FACE_OUTER_BOUND ( 'NONE', #36, .T. ) ;
#89 = CALENDAR_DATE ( 2013, 3, 4 ) ;
#90 = PERSON_AND_ORGANIZATION_ROLE ( 'design_supplier' ) ;
#91 = PERSON_AND_ORGANIZATION ( #110, #12 ) ;
#92 = COORDINATED_UNIVERSAL_TIME_OFFSET ( 7, 0, .BEHIND. ) ;
#93 = PERSON_AND_ORGANIZATION ( #110, #12 ) ;
#94 = PERSON_AND_ORGANIZATION_ROLE ( 'creator' ) ;
#95 = PERSON_AND_ORGANIZATION_ROLE ( 'creator' ) ;
#96 = PERSON_AND_ORGANIZATION ( #110, #12 ) ;
#97 = APPROVAL_DATE_TIME ( #104, #124 ) ;
#98 = CARTESIAN_POINT ( 'NONE',  ( 12.50000000000000000, 0.0000000000000000000, -3.000000000000000000 ) ) ;
#99 = SECURITY_CLASSIFICATION_LEVEL ( 'unclassified' ) ;
#100 = CARTESIAN_POINT ( 'NONE',  ( 0.0000000000000000000, 0.0000000000000000000, -3.000000000000000000 ) ) ;
#101 = ORIENTED_EDGE ( 'NONE', *, *, #129, .F. ) ;
#102 = DIRECTION ( 'NONE',  ( 1.000000000000000000, 0.0000000000000000000, 0.0000000000000000000 ) ) ;
#103 = CALENDAR_DATE ( 2013, 3, 4 ) ;
#104 = DATE_AND_TIME ( #103, #8 ) ;
#105 = DATE_AND_TIME ( #77, #15 ) ;
#106 = CYLINDRICAL_SURFACE ( 'NONE', #13, 12.50000000000000000 ) ;
#107 = COORDINATED_UNIVERSAL_TIME_OFFSET ( 7, 0, .BEHIND. ) ;
#108 = APPROVAL_DATE_TIME ( #83, #117 ) ;
#109 = APPROVAL_ROLE ( '' ) ;
#110 = PERSON ( 'UNSPECIFIED', 'UNSPECIFIED', 'UNSPECIFIED', ('UNSPECIFIED'), ('UNSPECIFIED'), ('UNSPECIFIED') ) ;
#111 = ADVANCED_BREP_SHAPE_REPRESENTATION ( '87701', ( #116, #19 ), #14 ) ;
#112 = PRODUCT ( '87701', '87701', '', ( #37 ) ) ;
#113 = UNCERTAINTY_MEASURE_WITH_UNIT (LENGTH_MEASURE( 1.000000000000000100E-005 ), #54, 'distance_accuracy_value', 'NONE');
#114 = PRODUCT_DEFINITION_SHAPE ( 'NONE', 'NONE',  #122 ) ;
#115 = DESIGN_CONTEXT ( 'detailed design', #135, 'design' ) ;
#116 = MANIFOLD_SOLID_BREP ( 'Revolve1', #11 ) ;
#117 = APPROVAL ( #79, 'UNSPECIFIED' ) ;
#118 = CC_DESIGN_PERSON_AND_ORGANIZATION_ASSIGNMENT ( #64, #84, ( #16 ) ) ;
#119 = CC_DESIGN_PERSON_AND_ORGANIZATION_ASSIGNMENT ( #40, #50, ( #112 ) ) ;
#120 = PRODUCT_RELATED_PRODUCT_CATEGORY ( 'detail', '', ( #112 ) ) ;
#121 = APPROVAL ( #78, 'UNSPECIFIED' ) ;
#122 = PRODUCT_DEFINITION ( 'UNKNOWN', '', #24, #115 ) ;
#123 = ADVANCED_FACE ( 'NONE', ( #88 ), #62, .F. ) ;
#124 = APPROVAL ( #38, 'UNSPECIFIED' ) ;
#125 = CC_DESIGN_PERSON_AND_ORGANIZATION_ASSIGNMENT ( #96, #95, ( #24 ) ) ;
#126 = ADVANCED_FACE ( 'NONE', ( #34 ), #58, .F. ) ;
#127 = CC_DESIGN_DATE_AND_TIME_ASSIGNMENT ( #105, #30, ( #16 ) ) ;
#128 = CC_DESIGN_PERSON_AND_ORGANIZATION_ASSIGNMENT ( #93, #90, ( #24 ) ) ;
#129 = EDGE_CURVE ( 'NONE', #48, #48, #4, .T. ) ;
#130 = CC_DESIGN_DATE_AND_TIME_ASSIGNMENT ( #69, #68, ( #122 ) ) ;
#131 = ADVANCED_FACE ( 'NONE', ( #44, #57 ), #106, .T. ) ;
#132 = EDGE_CURVE ( 'NONE', #49, #49, #5, .T. ) ;
#133 = CC_DESIGN_PERSON_AND_ORGANIZATION_ASSIGNMENT ( #53, #94, ( #122 ) ) ;
#134 = APPLICATION_CONTEXT ( 'configuration controlled 3d designs of mechanical parts and assemblies' ) ;
#135 = APPLICATION_CONTEXT ( 'configuration controlled 3d designs of mechanical parts and assemblies' ) ;
ENDSEC;
END-ISO-10303-21;
