ISO-10303-21;
HEADER;
FILE_DESCRIPTION (( 'STEP AP203' ),
    '1' );
FILE_NAME ('Web Model 68369_48898.step',
    '2017-03-01T19:00:05',
    ( '' ),
    ( '' ),
    'SwSTEP 2.0',
    'SolidWorks 2016',
    '' );
FILE_SCHEMA (( 'CONFIG_CONTROL_DESIGN' ));
ENDSEC;

DATA;
#1 = PRODUCT_DEFINITION ( 'UNKNOWN', '', #116, #117 ) ;
#2 = SECURITY_CLASSIFICATION_LEVEL ( 'unclassified' ) ;
#3 = PERSON_AND_ORGANIZATION ( #128, #187 ) ;
#4 = APPROVAL_DATE_TIME ( #232, #220 ) ;
#5 = CALENDAR_DATE ( 2017, 1, 3 ) ;
#6 = EDGE_CURVE ( 'NONE', #40, #77, #94, .T. ) ;
#7 = DIRECTION ( 'NONE',  ( 0.0000000000000000000, 0.0000000000000000000, -1.000000000000000000 ) ) ;
#8 = LOCAL_TIME ( 14, 0, 5.000000000000000000, #203 ) ;
#9 = DIRECTION ( 'NONE',  ( 1.000000000000000000, 0.0000000000000000000, 0.0000000000000000000 ) ) ;
#10 = COORDINATED_UNIVERSAL_TIME_OFFSET ( 5, 0, .BEHIND. ) ;
#11 = VECTOR ( 'NONE', #211, 1000.000000000000000 ) ;
#12 =( NAMED_UNIT ( * ) SI_UNIT ( $, .STERADIAN. ) SOLID_ANGLE_UNIT ( ) );
#13 = ORIENTED_EDGE ( 'NONE', *, *, #55, .T. ) ;
#14 = CLOSED_SHELL ( 'NONE', ( #52, #135, #44, #223, #109, #205 ) ) ;
#15 = PERSON_AND_ORGANIZATION ( #128, #187 ) ;
#16 = DIRECTION ( 'NONE',  ( -1.387778780781445400E-016, 1.000000000000000000, 0.0000000000000000000 ) ) ;
#17 = CC_DESIGN_SECURITY_CLASSIFICATION ( #57, ( #116 ) ) ;
#18 = PERSON_AND_ORGANIZATION ( #128, #187 ) ;
#19 = FACE_OUTER_BOUND ( 'NONE', #83, .T. ) ;
#20 = ORIENTED_EDGE ( 'NONE', *, *, #43, .T. ) ;
#21 = APPLICATION_PROTOCOL_DEFINITION ( 'international standard', 'config_control_design', 1994, #92 ) ;
#22 = PERSON_AND_ORGANIZATION ( #128, #187 ) ;
#23 = EDGE_CURVE ( 'NONE', #136, #40, #185, .T. ) ;
#24 = LINE ( 'NONE', #119, #168 ) ;
#25 = DIRECTION ( 'NONE',  ( -0.0000000000000000000, -0.0000000000000000000, -1.000000000000000000 ) ) ;
#26 = CARTESIAN_POINT ( 'NONE',  ( -12.49999999999999800, 12.49999999999999600, 0.0000000000000000000 ) ) ;
#27 = PLANE ( 'NONE',  #108 ) ;
#28 = ORIENTED_EDGE ( 'NONE', *, *, #218, .F. ) ;
#29 = ORIENTED_EDGE ( 'NONE', *, *, #121, .T. ) ;
#30 = AXIS2_PLACEMENT_3D ( 'NONE', #171, #86, #9 ) ;
#31 = APPROVAL_PERSON_ORGANIZATION ( #137, #78, #113 ) ;
#32 = EDGE_CURVE ( 'NONE', #56, #59, #67, .T. ) ;
#33 = CC_DESIGN_DATE_AND_TIME_ASSIGNMENT ( #62, #104, ( #1 ) ) ;
#34 = APPROVAL_STATUS ( 'not_yet_approved' ) ;
#35 = CARTESIAN_POINT ( 'NONE',  ( 12.49999999999999500, 12.50000000000000000, 3.000000000000000000 ) ) ;
#36 = LINE ( 'NONE', #48, #69 ) ;
#37 = DIRECTION ( 'NONE',  ( -1.000000000000000000, -1.387778780781445400E-016, 0.0000000000000000000 ) ) ;
#38 = ORIENTED_EDGE ( 'NONE', *, *, #218, .T. ) ;
#39 = ORIENTED_EDGE ( 'NONE', *, *, #32, .F. ) ;
#40 = VERTEX_POINT ( 'NONE', #49 ) ;
#41 = ORIENTED_EDGE ( 'NONE', *, *, #146, .F. ) ;
#42 = CARTESIAN_POINT ( 'NONE',  ( 12.50000000000000500, -12.50000000000000000, 3.000000000000000000 ) ) ;
#43 = EDGE_CURVE ( 'NONE', #77, #59, #80, .T. ) ;
#44 = ADVANCED_FACE ( 'NONE', ( #123 ), #165, .F. ) ;
#45 = LINE ( 'NONE', #202, #11 ) ;
#46 = DIRECTION ( 'NONE',  ( -1.000000000000000000, -1.387778780781445900E-016, 0.0000000000000000000 ) ) ;
#47 = DIRECTION ( 'NONE',  ( -0.0000000000000000000, -0.0000000000000000000, -1.000000000000000000 ) ) ;
#48 = CARTESIAN_POINT ( 'NONE',  ( -12.49999999999999500, -12.50000000000000400, 3.000000000000000000 ) ) ;
#49 = CARTESIAN_POINT ( 'NONE',  ( -12.49999999999999800, 12.49999999999999600, 0.0000000000000000000 ) ) ;
#50 = PERSON_AND_ORGANIZATION ( #128, #187 ) ;
#51 = APPROVAL_STATUS ( 'not_yet_approved' ) ;
#52 = ADVANCED_FACE ( 'NONE', ( #234 ), #167, .F. ) ;
#53 = CC_DESIGN_APPROVAL ( #148, ( #1 ) ) ;
#54 = CARTESIAN_POINT ( 'NONE',  ( -12.49999999999999500, -12.50000000000000400, 3.000000000000000000 ) ) ;
#55 = EDGE_CURVE ( 'NONE', #166, #236, #45, .T. ) ;
#56 = VERTEX_POINT ( 'NONE', #42 ) ;
#57 = SECURITY_CLASSIFICATION ( '', '', #2 ) ;
#58 = PERSON_AND_ORGANIZATION ( #128, #187 ) ;
#59 = VERTEX_POINT ( 'NONE', #143 ) ;
#60 = EDGE_CURVE ( 'NONE', #201, #166, #61, .T. ) ;
#61 = LINE ( 'NONE', #221, #145 ) ;
#62 = DATE_AND_TIME ( #5, #228 ) ;
#63 = FACE_OUTER_BOUND ( 'NONE', #162, .T. ) ;
#64 = DIRECTION ( 'NONE',  ( -1.000000000000000000, 0.0000000000000000000, -0.0000000000000000000 ) ) ;
#65 = CARTESIAN_POINT ( 'NONE',  ( 12.49999999999999500, 12.50000000000000000, 3.000000000000000000 ) ) ;
#66 = AXIS2_PLACEMENT_3D ( 'NONE', #35, #114, #142 ) ;
#67 = LINE ( 'NONE', #96, #204 ) ;
#68 = ORIENTED_EDGE ( 'NONE', *, *, #23, .F. ) ;
#69 = VECTOR ( 'NONE', #47, 1000.000000000000000 ) ;
#70 = APPROVAL_PERSON_ORGANIZATION ( #18, #148, #215 ) ;
#71 = CC_DESIGN_PERSON_AND_ORGANIZATION_ASSIGNMENT ( #3, #89, ( #1 ) ) ;
#72 = DIRECTION ( 'NONE',  ( 1.000000000000000000, 1.387778780781445400E-016, -0.0000000000000000000 ) ) ;
#73 = CALENDAR_DATE ( 2017, 1, 3 ) ;
#74 = EDGE_CURVE ( 'NONE', #201, #136, #24, .T. ) ;
#75 = CC_DESIGN_PERSON_AND_ORGANIZATION_ASSIGNMENT ( #15, #151, ( #116 ) ) ;
#76 = EDGE_LOOP ( 'NONE', ( #106, #28, #93, #191 ) ) ;
#77 = VERTEX_POINT ( 'NONE', #179 ) ;
#78 = APPROVAL ( #34, 'UNSPECIFIED' ) ;
#79 = CALENDAR_DATE ( 2017, 1, 3 ) ;
#80 = LINE ( 'NONE', #144, #110 ) ;
#81 = CALENDAR_DATE ( 2017, 1, 3 ) ;
#82 = EDGE_LOOP ( 'NONE', ( #88, #225, #227, #230 ) ) ;
#83 = EDGE_LOOP ( 'NONE', ( #20, #39, #99, #29 ) ) ;
#84 = PRODUCT_RELATED_PRODUCT_CATEGORY ( 'detail', '', ( #189 ) ) ;
#85 = ORIENTED_EDGE ( 'NONE', *, *, #169, .T. ) ;
#86 = DIRECTION ( 'NONE',  ( 0.0000000000000000000, 0.0000000000000000000, 1.000000000000000000 ) ) ;
#87 = AXIS2_PLACEMENT_3D ( 'NONE', #138, #16, #37 ) ;
#88 = ORIENTED_EDGE ( 'NONE', *, *, #146, .T. ) ;
#89 = PERSON_AND_ORGANIZATION_ROLE ( 'creator' ) ;
#90 = EDGE_LOOP ( 'NONE', ( #102, #197, #147, #38 ) ) ;
#91 = CC_DESIGN_APPROVAL ( #78, ( #116 ) ) ;
#92 = APPLICATION_CONTEXT ( 'configuration controlled 3d designs of mechanical parts and assemblies' ) ;
#93 = ORIENTED_EDGE ( 'NONE', *, *, #60, .F. ) ;
#94 = LINE ( 'NONE', #26, #209 ) ;
#95 = COORDINATED_UNIVERSAL_TIME_OFFSET ( 5, 0, .BEHIND. ) ;
#96 = CARTESIAN_POINT ( 'NONE',  ( 12.50000000000000500, -12.50000000000000000, 3.000000000000000000 ) ) ;
#97 = CC_DESIGN_PERSON_AND_ORGANIZATION_ASSIGNMENT ( #22, #159, ( #116 ) ) ;
#98 = ORIENTED_EDGE ( 'NONE', *, *, #43, .F. ) ;
#99 = ORIENTED_EDGE ( 'NONE', *, *, #169, .F. ) ;
#100 = PERSON_AND_ORGANIZATION ( #128, #187 ) ;
#101 = EDGE_LOOP ( 'NONE', ( #172, #68, #41, #98 ) ) ;
#102 = ORIENTED_EDGE ( 'NONE', *, *, #6, .T. ) ;
#103 = VECTOR ( 'NONE', #229, 1000.000000000000000 ) ;
#104 = DATE_TIME_ROLE ( 'creation_date' ) ;
#105 = CARTESIAN_POINT ( 'NONE',  ( -12.49999999999999800, 12.49999999999999600, 3.000000000000000000 ) ) ;
#106 = ORIENTED_EDGE ( 'NONE', *, *, #23, .T. ) ;
#107 = DATE_AND_TIME ( #196, #112 ) ;
#108 = AXIS2_PLACEMENT_3D ( 'NONE', #177, #155, #64 ) ;
#109 = ADVANCED_FACE ( 'NONE', ( #63 ), #199, .F. ) ;
#110 = VECTOR ( 'NONE', #130, 1000.000000000000000 ) ;
#111 = DIRECTION ( 'NONE',  ( -0.0000000000000000000, -0.0000000000000000000, -1.000000000000000000 ) ) ;
#112 = LOCAL_TIME ( 14, 0, 5.000000000000000000, #95 ) ;
#113 = APPROVAL_ROLE ( '' ) ;
#114 = DIRECTION ( 'NONE',  ( -1.000000000000000000, -4.163336342344336500E-016, 0.0000000000000000000 ) ) ;
#115 = MECHANICAL_CONTEXT ( 'NONE', #92, 'mechanical' ) ;
#116 = PRODUCT_DEFINITION_FORMATION_WITH_SPECIFIED_SOURCE ( 'ANY', '', #189, .NOT_KNOWN. ) ;
#117 = DESIGN_CONTEXT ( 'detailed design', #132, 'design' ) ;
#118 =( GEOMETRIC_REPRESENTATION_CONTEXT ( 3 ) GLOBAL_UNCERTAINTY_ASSIGNED_CONTEXT ( ( #214 ) ) GLOBAL_UNIT_ASSIGNED_CONTEXT ( ( #122, #125, #12 ) ) REPRESENTATION_CONTEXT ( 'NONE', 'WORKASPACE' ) );
#119 = CARTESIAN_POINT ( 'NONE',  ( 12.49999999999999500, 12.50000000000000000, 3.000000000000000000 ) ) ;
#120 = APPROVAL_DATE_TIME ( #139, #148 ) ;
#121 = EDGE_CURVE ( 'NONE', #236, #77, #36, .T. ) ;
#122 =( LENGTH_UNIT ( ) NAMED_UNIT ( * ) SI_UNIT ( .MILLI., .METRE. ) );
#123 = FACE_OUTER_BOUND ( 'NONE', #82, .T. ) ;
#124 = PLANE ( 'NONE',  #87 ) ;
#125 =( NAMED_UNIT ( * ) PLANE_ANGLE_UNIT ( ) SI_UNIT ( $, .RADIAN. ) );
#126 = DATE_AND_TIME ( #79, #153 ) ;
#127 = COORDINATED_UNIVERSAL_TIME_OFFSET ( 5, 0, .BEHIND. ) ;
#128 = PERSON ( 'UNSPECIFIED', 'UNSPECIFIED', 'UNSPECIFIED', ('UNSPECIFIED'), ('UNSPECIFIED'), ('UNSPECIFIED') ) ;
#129 = COORDINATED_UNIVERSAL_TIME_OFFSET ( 5, 0, .BEHIND. ) ;
#130 = DIRECTION ( 'NONE',  ( 1.000000000000000000, 1.387778780781445700E-016, -0.0000000000000000000 ) ) ;
#131 = PRODUCT_DEFINITION_SHAPE ( 'NONE', 'NONE',  #1 ) ;
#132 = APPLICATION_CONTEXT ( 'configuration controlled 3d designs of mechanical parts and assemblies' ) ;
#133 = DIRECTION ( 'NONE',  ( -4.163336342344337000E-016, 1.000000000000000000, -0.0000000000000000000 ) ) ;
#134 = CC_DESIGN_PERSON_AND_ORGANIZATION_ASSIGNMENT ( #58, #184, ( #57 ) ) ;
#135 = ADVANCED_FACE ( 'NONE', ( #19 ), #124, .F. ) ;
#136 = VERTEX_POINT ( 'NONE', #183 ) ;
#137 = PERSON_AND_ORGANIZATION ( #128, #187 ) ;
#138 = CARTESIAN_POINT ( 'NONE',  ( 12.50000000000000500, -12.50000000000000000, 3.000000000000000000 ) ) ;
#139 = DATE_AND_TIME ( #73, #8 ) ;
#140 = FACE_OUTER_BOUND ( 'NONE', #101, .T. ) ;
#141 = CARTESIAN_POINT ( 'NONE',  ( -12.49999999999999800, 12.49999999999999600, 3.000000000000000000 ) ) ;
#142 = DIRECTION ( 'NONE',  ( 4.163336342344336500E-016, -1.000000000000000000, 0.0000000000000000000 ) ) ;
#143 = CARTESIAN_POINT ( 'NONE',  ( 12.50000000000000500, -12.50000000000000000, 0.0000000000000000000 ) ) ;
#144 = CARTESIAN_POINT ( 'NONE',  ( 12.50000000000000500, -12.50000000000000000, 0.0000000000000000000 ) ) ;
#145 = VECTOR ( 'NONE', #46, 1000.000000000000000 ) ;
#146 = EDGE_CURVE ( 'NONE', #59, #136, #182, .T. ) ;
#147 = ORIENTED_EDGE ( 'NONE', *, *, #55, .F. ) ;
#148 = APPROVAL ( #170, 'UNSPECIFIED' ) ;
#149 = ORIENTED_EDGE ( 'NONE', *, *, #176, .T. ) ;
#150 = DIRECTION ( 'NONE',  ( 1.387778780781445700E-016, -1.000000000000000000, 0.0000000000000000000 ) ) ;
#151 = PERSON_AND_ORGANIZATION_ROLE ( 'creator' ) ;
#152 = CARTESIAN_POINT ( 'NONE',  ( 12.50000000000000500, -12.50000000000000000, 3.000000000000000000 ) ) ;
#153 = LOCAL_TIME ( 14, 0, 5.000000000000000000, #10 ) ;
#154 = PERSON_AND_ORGANIZATION_ROLE ( 'design_owner' ) ;
#155 = DIRECTION ( 'NONE',  ( 0.0000000000000000000, 0.0000000000000000000, -1.000000000000000000 ) ) ;
#156 = DIRECTION ( 'NONE',  ( 1.000000000000000000, 1.387778780781445700E-016, -0.0000000000000000000 ) ) ;
#157 = MANIFOLD_SOLID_BREP ( 'Extrude1', #14 ) ;
#158 = FACE_OUTER_BOUND ( 'NONE', #76, .T. ) ;
#159 = PERSON_AND_ORGANIZATION_ROLE ( 'design_supplier' ) ;
#160 = DIRECTION ( 'NONE',  ( -4.163336342344337000E-016, 1.000000000000000000, -0.0000000000000000000 ) ) ;
#161 = DATE_TIME_ROLE ( 'classification_date' ) ;
#162 = EDGE_LOOP ( 'NONE', ( #13, #85, #149, #178 ) ) ;
#163 = LINE ( 'NONE', #152, #237 ) ;
#164 = CC_DESIGN_APPROVAL ( #220, ( #57 ) ) ;
#165 = PLANE ( 'NONE',  #66 ) ;
#166 = VERTEX_POINT ( 'NONE', #141 ) ;
#167 = PLANE ( 'NONE',  #235 ) ;
#168 = VECTOR ( 'NONE', #25, 1000.000000000000000 ) ;
#169 = EDGE_CURVE ( 'NONE', #236, #56, #163, .T. ) ;
#170 = APPROVAL_STATUS ( 'not_yet_approved' ) ;
#171 = CARTESIAN_POINT ( 'NONE',  ( 0.0000000000000000000, 0.0000000000000000000, 0.0000000000000000000 ) ) ;
#172 = ORIENTED_EDGE ( 'NONE', *, *, #6, .F. ) ;
#173 = APPROVAL_PERSON_ORGANIZATION ( #100, #220, #186 ) ;
#174 = DIRECTION ( 'NONE',  ( -1.000000000000000000, 0.0000000000000000000, -0.0000000000000000000 ) ) ;
#175 = LINE ( 'NONE', #65, #207 ) ;
#176 = EDGE_CURVE ( 'NONE', #56, #201, #175, .T. ) ;
#177 = CARTESIAN_POINT ( 'NONE',  ( -12.49999999999999500, -12.50000000000000400, 0.0000000000000000000 ) ) ;
#178 = ORIENTED_EDGE ( 'NONE', *, *, #60, .T. ) ;
#179 = CARTESIAN_POINT ( 'NONE',  ( -12.49999999999999500, -12.50000000000000400, 0.0000000000000000000 ) ) ;
#180 = CARTESIAN_POINT ( 'NONE',  ( 12.49999999999999500, 12.50000000000000000, 0.0000000000000000000 ) ) ;
#181 = VECTOR ( 'NONE', #160, 1000.000000000000000 ) ;
#182 = LINE ( 'NONE', #219, #181 ) ;
#183 = CARTESIAN_POINT ( 'NONE',  ( 12.49999999999999500, 12.50000000000000000, 0.0000000000000000000 ) ) ;
#184 = PERSON_AND_ORGANIZATION_ROLE ( 'classification_officer' ) ;
#185 = LINE ( 'NONE', #180, #208 ) ;
#186 = APPROVAL_ROLE ( '' ) ;
#187 = ORGANIZATION ( 'UNSPECIFIED', 'UNSPECIFIED', '' ) ;
#188 = DIRECTION ( 'NONE',  ( -1.387778780781445400E-016, 1.000000000000000000, 0.0000000000000000000 ) ) ;
#189 = PRODUCT ( 'Web Model 68369_48898', 'Web Model 68369_48898', '', ( #115 ) ) ;
#190 = CC_DESIGN_DATE_AND_TIME_ASSIGNMENT ( #126, #161, ( #57 ) ) ;
#191 = ORIENTED_EDGE ( 'NONE', *, *, #74, .T. ) ;
#192 = AXIS2_PLACEMENT_3D ( 'NONE', #217, #224, #194 ) ;
#193 = CARTESIAN_POINT ( 'NONE',  ( 12.49999999999999500, 12.50000000000000000, 3.000000000000000000 ) ) ;
#194 = DIRECTION ( 'NONE',  ( 1.000000000000000000, 1.387778780781445900E-016, 0.0000000000000000000 ) ) ;
#195 = SHAPE_DEFINITION_REPRESENTATION ( #131, #233 ) ;
#196 = CALENDAR_DATE ( 2017, 1, 3 ) ;
#197 = ORIENTED_EDGE ( 'NONE', *, *, #121, .F. ) ;
#198 = CARTESIAN_POINT ( 'NONE',  ( -12.49999999999999500, -12.50000000000000400, 3.000000000000000000 ) ) ;
#199 = PLANE ( 'NONE',  #222 ) ;
#200 = PLANE ( 'NONE',  #192 ) ;
#201 = VERTEX_POINT ( 'NONE', #193 ) ;
#202 = CARTESIAN_POINT ( 'NONE',  ( -12.49999999999999800, 12.49999999999999600, 3.000000000000000000 ) ) ;
#203 = COORDINATED_UNIVERSAL_TIME_OFFSET ( 5, 0, .BEHIND. ) ;
#204 = VECTOR ( 'NONE', #111, 1000.000000000000000 ) ;
#205 = ADVANCED_FACE ( 'NONE', ( #140 ), #27, .T. ) ;
#206 = CC_DESIGN_PERSON_AND_ORGANIZATION_ASSIGNMENT ( #50, #154, ( #189 ) ) ;
#207 = VECTOR ( 'NONE', #133, 1000.000000000000000 ) ;
#208 = VECTOR ( 'NONE', #216, 1000.000000000000000 ) ;
#209 = VECTOR ( 'NONE', #150, 1000.000000000000000 ) ;
#210 = APPLICATION_PROTOCOL_DEFINITION ( 'international standard', 'config_control_design', 1994, #132 ) ;
#211 = DIRECTION ( 'NONE',  ( 1.387778780781445700E-016, -1.000000000000000000, 0.0000000000000000000 ) ) ;
#212 = LOCAL_TIME ( 14, 0, 5.000000000000000000, #129 ) ;
#213 = CARTESIAN_POINT ( 'NONE',  ( -12.49999999999999800, 12.49999999999999600, 3.000000000000000000 ) ) ;
#214 = UNCERTAINTY_MEASURE_WITH_UNIT (LENGTH_MEASURE( 1.000000000000000100E-005 ), #122, 'distance_accuracy_value', 'NONE');
#215 = APPROVAL_ROLE ( '' ) ;
#216 = DIRECTION ( 'NONE',  ( -1.000000000000000000, -1.387778780781445900E-016, 0.0000000000000000000 ) ) ;
#217 = CARTESIAN_POINT ( 'NONE',  ( 12.49999999999999500, 12.50000000000000000, 3.000000000000000000 ) ) ;
#218 = EDGE_CURVE ( 'NONE', #166, #40, #226, .T. ) ;
#219 = CARTESIAN_POINT ( 'NONE',  ( 12.49999999999999500, 12.50000000000000000, 0.0000000000000000000 ) ) ;
#220 = APPROVAL ( #51, 'UNSPECIFIED' ) ;
#221 = CARTESIAN_POINT ( 'NONE',  ( 12.49999999999999500, 12.50000000000000000, 3.000000000000000000 ) ) ;
#222 = AXIS2_PLACEMENT_3D ( 'NONE', #198, #7, #174 ) ;
#223 = ADVANCED_FACE ( 'NONE', ( #158 ), #200, .F. ) ;
#224 = DIRECTION ( 'NONE',  ( 1.387778780781445900E-016, -1.000000000000000000, 0.0000000000000000000 ) ) ;
#225 = ORIENTED_EDGE ( 'NONE', *, *, #74, .F. ) ;
#226 = LINE ( 'NONE', #213, #103 ) ;
#227 = ORIENTED_EDGE ( 'NONE', *, *, #176, .F. ) ;
#228 = LOCAL_TIME ( 14, 0, 5.000000000000000000, #127 ) ;
#229 = DIRECTION ( 'NONE',  ( -0.0000000000000000000, -0.0000000000000000000, -1.000000000000000000 ) ) ;
#230 = ORIENTED_EDGE ( 'NONE', *, *, #32, .T. ) ;
#231 = APPROVAL_DATE_TIME ( #107, #78 ) ;
#232 = DATE_AND_TIME ( #81, #212 ) ;
#233 = ADVANCED_BREP_SHAPE_REPRESENTATION ( 'Web Model 68369_48898', ( #157, #30 ), #118 ) ;
#234 = FACE_OUTER_BOUND ( 'NONE', #90, .T. ) ;
#235 = AXIS2_PLACEMENT_3D ( 'NONE', #105, #72, #188 ) ;
#236 = VERTEX_POINT ( 'NONE', #54 ) ;
#237 = VECTOR ( 'NONE', #156, 1000.000000000000000 ) ;
ENDSEC;
END-ISO-10303-21;
