ISO-10303-21;
HEADER;
FILE_DESCRIPTION (( 'STEP AP203' ),
    '1' );
FILE_NAME ('25001-E0W.STEP',
    '2015-04-28T20:38:40',
    ( 'Admin' ),
    ( '' ),
    'SwSTEP 2.0',
    'SolidWorks 2014',
    '' );
FILE_SCHEMA (( 'CONFIG_CONTROL_DESIGN' ));
ENDSEC;

DATA;
#1 = APPLICATION_PROTOCOL_DEFINITION ( 'international standard', 'config_control_design', 1994, #287 ) ;
#2 = APPROVAL_DATE_TIME ( #219, #27 ) ;
#3 = LOCAL_TIME ( 16, 38, 40.00000000000000000, #192 ) ;
#4 = ORIENTED_EDGE ( 'NONE', *, *, #40, .T. ) ;
#5 = ORIENTED_EDGE ( 'NONE', *, *, #40, .F. ) ;
#6 = DIRECTION ( 'NONE',  ( 1.000000000000000000, 0.0000000000000000000, 0.0000000000000000000 ) ) ;
#7 = VERTEX_POINT ( 'NONE', #76 ) ;
#8 = EDGE_CURVE ( 'NONE', #264, #30, #125, .T. ) ;
#9 =( LENGTH_UNIT ( ) NAMED_UNIT ( * ) SI_UNIT ( .MILLI., .METRE. ) );
#10 = CIRCLE ( 'NONE', #15, 12.69999999999999900 ) ;
#11 = DIRECTION ( 'NONE',  ( 0.0000000000000000000, 0.0000000000000000000, -1.000000000000000000 ) ) ;
#12 = CARTESIAN_POINT ( 'NONE',  ( 12.55857864376268800, 0.0000000000000000000, -1.504999999999999400 ) ) ;
#13 = EDGE_CURVE ( 'NONE', #144, #208, #179, .T. ) ;
#14 = ORIENTED_EDGE ( 'NONE', *, *, #124, .T. ) ;
#15 = AXIS2_PLACEMENT_3D ( 'NONE', #108, #86, #186 ) ;
#16 = AXIS2_PLACEMENT_3D ( 'NONE', #68, #65, #64 ) ;
#17 = DIRECTION ( 'NONE',  ( 1.224646799147353200E-016, 1.000000000000000000, 0.0000000000000000000 ) ) ;
#18 = ORIENTED_EDGE ( 'NONE', *, *, #288, .T. ) ;
#19 = DIRECTION ( 'NONE',  ( -1.000000000000000000, 0.0000000000000000000, 0.0000000000000000000 ) ) ;
#20 = DIRECTION ( 'NONE',  ( -0.0000000000000000000, -0.0000000000000000000, 1.000000000000000000 ) ) ;
#21 = PERSON_AND_ORGANIZATION ( #171, #38 ) ;
#22 = CARTESIAN_POINT ( 'NONE',  ( -12.69999999999999900, 0.0000000000000000000, 0.3760639353888977100 ) ) ;
#23 = DIRECTION ( 'NONE',  ( -1.000000000000000000, 1.224646799147353200E-016, 0.0000000000000000000 ) ) ;
#24 = CARTESIAN_POINT ( 'NONE',  ( 12.55857864376268800, 0.0000000000000000000, -1.504999999999999400 ) ) ;
#25 = DIRECTION ( 'NONE',  ( 1.000000000000000000, 0.0000000000000000000, 0.0000000000000000000 ) ) ;
#26 = CARTESIAN_POINT ( 'NONE',  ( -12.55857864376270400, 1.537982313792430400E-015, 0.5174852916262004900 ) ) ;
#27 = APPROVAL ( #164, 'UNSPECIFIED' ) ;
#28 = LOCAL_TIME ( 16, 38, 40.00000000000000000, #196 ) ;
#29 = CARTESIAN_POINT ( 'NONE',  ( 0.0000000000000000000, 0.0000000000000000000, -1.504999999999999900 ) ) ;
#30 = VERTEX_POINT ( 'NONE', #26 ) ;
#31 = PLANE ( 'NONE',  #265 ) ;
#32 = AXIS2_PLACEMENT_3D ( 'NONE', #298, #57, #277 ) ;
#33 = ADVANCED_FACE ( 'NONE', ( #79 ), #31, .F. ) ;
#34 = VECTOR ( 'NONE', #293, 1000.000000000000000 ) ;
#35 = CIRCLE ( 'NONE', #153, 80.51000000000267700 ) ;
#36 = DIRECTION ( 'NONE',  ( -0.7071067811865519000, 0.0000000000000000000, -0.7071067811865431300 ) ) ;
#37 = AXIS2_PLACEMENT_3D ( 'NONE', #141, #20, #6 ) ;
#38 = ORGANIZATION ( 'UNSPECIFIED', 'UNSPECIFIED', '' ) ;
#39 = APPROVAL_PERSON_ORGANIZATION ( #112, #282, #238 ) ;
#40 = EDGE_CURVE ( 'NONE', #208, #129, #55, .T. ) ;
#41 = EDGE_CURVE ( 'NONE', #264, #7, #223, .T. ) ;
#42 = ORIENTED_EDGE ( 'NONE', *, *, #156, .T. ) ;
#43 = APPROVAL_STATUS ( 'not_yet_approved' ) ;
#44 = FACE_OUTER_BOUND ( 'NONE', #255, .T. ) ;
#45 = LINE ( 'NONE', #22, #169 ) ;
#46 = DIRECTION ( 'NONE',  ( 0.0000000000000000000, 0.0000000000000000000, -1.000000000000000000 ) ) ;
#47 = ORIENTED_EDGE ( 'NONE', *, *, #8, .F. ) ;
#48 = AXIS2_PLACEMENT_3D ( 'NONE', #123, #46, #19 ) ;
#49 = ORIENTED_EDGE ( 'NONE', *, *, #89, .T. ) ;
#50 = AXIS2_PLACEMENT_3D ( 'NONE', #285, #245, #131 ) ;
#51 = CARTESIAN_POINT ( 'NONE',  ( 0.0000000000000000000, 0.0000000000000000000, 0.3760639353888977100 ) ) ;
#52 = PERSON_AND_ORGANIZATION_ROLE ( 'classification_officer' ) ;
#53 = FACE_OUTER_BOUND ( 'NONE', #184, .T. ) ;
#54 = VECTOR ( 'NONE', #66, 1000.000000000000000 ) ;
#55 = LINE ( 'NONE', #24, #200 ) ;
#56 = CC_DESIGN_PERSON_AND_ORGANIZATION_ASSIGNMENT ( #276, #105, ( #240 ) ) ;
#57 = DIRECTION ( 'NONE',  ( 0.0000000000000000000, 0.0000000000000000000, -1.000000000000000000 ) ) ;
#58 = CARTESIAN_POINT ( 'NONE',  ( 0.0000000000000000000, 0.0000000000000000000, -1.363578643762689800 ) ) ;
#59 = APPLICATION_CONTEXT ( 'configuration controlled 3d designs of mechanical parts and assemblies' ) ;
#60 = ADVANCED_FACE ( 'NONE', ( #191 ), #284, .T. ) ;
#61 = CONICAL_SURFACE ( 'NONE', #269, 12.55857864376268800, 0.7853981633974545000 ) ;
#62 = CARTESIAN_POINT ( 'NONE',  ( -12.55857864376268800, 1.546641874354783400E-015, -1.504999999999999400 ) ) ;
#63 = AXIS2_PLACEMENT_3D ( 'NONE', #121, #213, #207 ) ;
#64 = DIRECTION ( 'NONE',  ( 1.000000000000000000, 0.0000000000000000000, 0.0000000000000000000 ) ) ;
#65 = DIRECTION ( 'NONE',  ( -0.0000000000000000000, -0.0000000000000000000, 1.000000000000000000 ) ) ;
#66 = DIRECTION ( 'NONE',  ( -0.0000000000000000000, -0.0000000000000000000, 1.000000000000000000 ) ) ;
#67 = DIRECTION ( 'NONE',  ( 1.000000000000000000, 0.0000000000000000000, 0.0000000000000000000 ) ) ;
#68 = CARTESIAN_POINT ( 'NONE',  ( 0.0000000000000000000, 0.0000000000000000000, -1.504999999999999400 ) ) ;
#69 = AXIS2_PLACEMENT_3D ( 'NONE', #90, #168, #187 ) ;
#70 = ORIENTED_EDGE ( 'NONE', *, *, #13, .F. ) ;
#71 = FACE_OUTER_BOUND ( 'NONE', #216, .T. ) ;
#72 = DIRECTION ( 'NONE',  ( -0.0000000000000000000, -0.0000000000000000000, 1.000000000000000000 ) ) ;
#73 = ORIENTED_EDGE ( 'NONE', *, *, #8, .T. ) ;
#74 = DIRECTION ( 'NONE',  ( 1.000000000000000000, 0.0000000000000000000, 0.0000000000000000000 ) ) ;
#75 = LOCAL_TIME ( 16, 38, 40.00000000000000000, #241 ) ;
#76 = CARTESIAN_POINT ( 'NONE',  ( 12.69999999999999900, 0.0000000000000000000, 0.3760639353888977100 ) ) ;
#77 = PRODUCT_RELATED_PRODUCT_CATEGORY ( 'detail', '', ( #136 ) ) ;
#78 = CARTESIAN_POINT ( 'NONE',  ( -12.69999999999999900, 1.555301434917138400E-015, 0.3760639353888977100 ) ) ;
#79 = FACE_OUTER_BOUND ( 'NONE', #220, .T. ) ;
#80 = SHAPE_DEFINITION_REPRESENTATION ( #236, #113 ) ;
#81 = EDGE_CURVE ( 'NONE', #30, #139, #35, .T. ) ;
#82 = CALENDAR_DATE ( 2015, 28, 4 ) ;
#83 = CIRCLE ( 'NONE', #37, 12.55857864376268800 ) ;
#84 = CARTESIAN_POINT ( 'NONE',  ( 0.0000000000000000000, 0.0000000000000000000, 0.5174852916262073800 ) ) ;
#85 = VECTOR ( 'NONE', #226, 1000.000000000000000 ) ;
#86 = DIRECTION ( 'NONE',  ( -0.0000000000000000000, -0.0000000000000000000, 1.000000000000000000 ) ) ;
#87 = CC_DESIGN_SECURITY_CLASSIFICATION ( #259, ( #240 ) ) ;
#88 = EDGE_CURVE ( 'NONE', #129, #7, #177, .T. ) ;
#89 = EDGE_CURVE ( 'NONE', #263, #249, #244, .T. ) ;
#90 = CARTESIAN_POINT ( 'NONE',  ( 0.0000000000000000000, 0.0000000000000000000, 20.94080269199658100 ) ) ;
#91 = DIRECTION ( 'NONE',  ( -0.0000000000000000000, -0.0000000000000000000, 1.000000000000000000 ) ) ;
#92 = DIRECTION ( 'NONE',  ( 1.000000000000000000, 0.0000000000000000000, 0.0000000000000000000 ) ) ;
#93 = CC_DESIGN_APPROVAL ( #27, ( #281 ) ) ;
#94 = EDGE_LOOP ( 'NONE', ( #228, #194, #159, #250 ) ) ;
#95 = CLOSED_SHELL ( 'NONE', ( #206, #140, #202, #162, #283, #33, #230, #118, #60 ) ) ;
#96 = FACE_OUTER_BOUND ( 'NONE', #254, .T. ) ;
#97 = DIRECTION ( 'NONE',  ( 1.000000000000000000, 0.0000000000000000000, 0.0000000000000000000 ) ) ;
#98 = CC_DESIGN_PERSON_AND_ORGANIZATION_ASSIGNMENT ( #167, #217, ( #240 ) ) ;
#99 = DIRECTION ( 'NONE',  ( 0.0000000000000000000, -0.0000000000000000000, 1.000000000000000000 ) ) ;
#100 = FACE_OUTER_BOUND ( 'NONE', #300, .T. ) ;
#101 = CARTESIAN_POINT ( 'NONE',  ( 0.0000000000000000000, 0.0000000000000000000, 20.94080269199658100 ) ) ;
#102 = EDGE_CURVE ( 'NONE', #30, #264, #231, .T. ) ;
#103 = FACE_OUTER_BOUND ( 'NONE', #94, .T. ) ;
#104 = CONICAL_SURFACE ( 'NONE', #266, 12.55857864376268800, 0.7853981633974545000 ) ;
#105 = PERSON_AND_ORGANIZATION_ROLE ( 'creator' ) ;
#106 = PERSON_AND_ORGANIZATION ( #171, #38 ) ;
#107 = CARTESIAN_POINT ( 'NONE',  ( 0.0000000000000000000, 0.0000000000000000000, 1.504999999999999900 ) ) ;
#108 = CARTESIAN_POINT ( 'NONE',  ( 0.0000000000000000000, 0.0000000000000000000, -1.363578643762689800 ) ) ;
#109 = DIRECTION ( 'NONE',  ( -0.0000000000000000000, -0.0000000000000000000, 1.000000000000000000 ) ) ;
#110 = MANIFOLD_SOLID_BREP ( '25001-001-1-solid1', #95 ) ;
#111 = ORIENTED_EDGE ( 'NONE', *, *, #13, .T. ) ;
#112 = PERSON_AND_ORGANIZATION ( #171, #38 ) ;
#113 = ADVANCED_BREP_SHAPE_REPRESENTATION ( '25001-E0W', ( #110, #147 ), #152 ) ;
#114 = CC_DESIGN_PERSON_AND_ORGANIZATION_ASSIGNMENT ( #271, #222, ( #281 ) ) ;
#115 = AXIS2_PLACEMENT_3D ( 'NONE', #148, #257, #183 ) ;
#116 = ORIENTED_EDGE ( 'NONE', *, *, #88, .F. ) ;
#117 = CARTESIAN_POINT ( 'NONE',  ( 0.0000000000000000000, 0.0000000000000000000, 0.3760639353888977100 ) ) ;
#118 = ADVANCED_FACE ( 'NONE', ( #103 ), #239, .T. ) ;
#119 = ORIENTED_EDGE ( 'NONE', *, *, #256, .F. ) ;
#120 = CIRCLE ( 'NONE', #165, 80.51000000000269100 ) ;
#121 = CARTESIAN_POINT ( 'NONE',  ( 0.0000000000000000000, 0.0000000000000000000, 0.5174852916262073800 ) ) ;
#122 = DATE_AND_TIME ( #243, #154 ) ;
#123 = CARTESIAN_POINT ( 'NONE',  ( 0.0000000000000000000, 0.0000000000000000000, 0.3760639353888977100 ) ) ;
#124 = EDGE_CURVE ( 'NONE', #264, #139, #120, .T. ) ;
#125 = CIRCLE ( 'NONE', #198, 12.55857864376268800 ) ;
#126 = CARTESIAN_POINT ( 'NONE',  ( 12.69999999999999900, 1.555301434917138400E-015, 0.3760639353888977100 ) ) ;
#127 = PERSON_AND_ORGANIZATION ( #171, #38 ) ;
#128 = EDGE_LOOP ( 'NONE', ( #73, #201, #193 ) ) ;
#129 = VERTEX_POINT ( 'NONE', #143 ) ;
#130 = DIRECTION ( 'NONE',  ( 1.000000000000000000, 0.0000000000000000000, 0.0000000000000000000 ) ) ;
#131 = DIRECTION ( 'NONE',  ( 1.000000000000000000, 0.0000000000000000000, 0.0000000000000000000 ) ) ;
#132 = DATE_AND_TIME ( #268, #3 ) ;
#133 = PERSON_AND_ORGANIZATION_ROLE ( 'design_owner' ) ;
#134 = COORDINATED_UNIVERSAL_TIME_OFFSET ( 5, 0, .BEHIND. ) ;
#135 = CC_DESIGN_PERSON_AND_ORGANIZATION_ASSIGNMENT ( #151, #52, ( #259 ) ) ;
#136 = PRODUCT ( '25001-E0W', '25001-E0W', '', ( #175 ) ) ;
#137 = CC_DESIGN_APPROVAL ( #282, ( #259 ) ) ;
#138 = ORIENTED_EDGE ( 'NONE', *, *, #163, .T. ) ;
#139 = VERTEX_POINT ( 'NONE', #107 ) ;
#140 = ADVANCED_FACE ( 'NONE', ( #71 ), #297, .T. ) ;
#141 = CARTESIAN_POINT ( 'NONE',  ( 0.0000000000000000000, 0.0000000000000000000, -1.504999999999999400 ) ) ;
#142 = CIRCLE ( 'NONE', #273, 12.69999999999999900 ) ;
#143 = CARTESIAN_POINT ( 'NONE',  ( 12.69999999999999900, 0.0000000000000000000, -1.363578643762689800 ) ) ;
#144 = VERTEX_POINT ( 'NONE', #62 ) ;
#145 = ORIENTED_EDGE ( 'NONE', *, *, #102, .T. ) ;
#146 = ORIENTED_EDGE ( 'NONE', *, *, #288, .F. ) ;
#147 = AXIS2_PLACEMENT_3D ( 'NONE', #279, #178, #150 ) ;
#148 = CARTESIAN_POINT ( 'NONE',  ( 0.0000000000000000000, 0.0000000000000000000, -79.00499901368074500 ) ) ;
#149 = APPROVAL_PERSON_ORGANIZATION ( #106, #252, #248 ) ;
#150 = DIRECTION ( 'NONE',  ( 1.000000000000000000, 0.0000000000000000000, 0.0000000000000000000 ) ) ;
#151 = PERSON_AND_ORGANIZATION ( #171, #38 ) ;
#152 =( GEOMETRIC_REPRESENTATION_CONTEXT ( 3 ) GLOBAL_UNCERTAINTY_ASSIGNED_CONTEXT ( ( #242 ) ) GLOBAL_UNIT_ASSIGNED_CONTEXT ( ( #9, #170, #161 ) ) REPRESENTATION_CONTEXT ( 'NONE', 'WORKASPACE' ) );
#153 = AXIS2_PLACEMENT_3D ( 'NONE', #296, #17, #23 ) ;
#154 = LOCAL_TIME ( 16, 38, 40.00000000000000000, #134 ) ;
#155 = ORIENTED_EDGE ( 'NONE', *, *, #290, .F. ) ;
#156 = EDGE_CURVE ( 'NONE', #144, #263, #215, .T. ) ;
#157 = DIRECTION ( 'NONE',  ( -0.0000000000000000000, -0.0000000000000000000, 1.000000000000000000 ) ) ;
#158 = APPROVAL_PERSON_ORGANIZATION ( #21, #27, #270 ) ;
#159 = ORIENTED_EDGE ( 'NONE', *, *, #88, .T. ) ;
#160 = TOROIDAL_SURFACE ( 'NONE', #50, -0.01260228376516632500, 80.51000000000267700 ) ;
#161 =( NAMED_UNIT ( * ) SI_UNIT ( $, .STERADIAN. ) SOLID_ANGLE_UNIT ( ) );
#162 = ADVANCED_FACE ( 'NONE', ( #295 ), #160, .T. ) ;
#163 = EDGE_CURVE ( 'NONE', #249, #7, #204, .T. ) ;
#164 = APPROVAL_STATUS ( 'not_yet_approved' ) ;
#165 = AXIS2_PLACEMENT_3D ( 'NONE', #274, #235, #11 ) ;
#166 = DESIGN_CONTEXT ( 'detailed design', #59, 'design' ) ;
#167 = PERSON_AND_ORGANIZATION ( #171, #38 ) ;
#168 = DIRECTION ( 'NONE',  ( -0.0000000000000000000, -0.0000000000000000000, 1.000000000000000000 ) ) ;
#169 = VECTOR ( 'NONE', #36, 1000.000000000000000 ) ;
#170 =( NAMED_UNIT ( * ) PLANE_ANGLE_UNIT ( ) SI_UNIT ( $, .RADIAN. ) );
#171 = PERSON ( 'UNSPECIFIED', 'UNSPECIFIED', 'UNSPECIFIED', ('UNSPECIFIED'), ('UNSPECIFIED'), ('UNSPECIFIED') ) ;
#172 = DATE_AND_TIME ( #275, #174 ) ;
#173 = ORIENTED_EDGE ( 'NONE', *, *, #41, .T. ) ;
#174 = LOCAL_TIME ( 16, 38, 40.00000000000000000, #261 ) ;
#175 = MECHANICAL_CONTEXT ( 'NONE', #287, 'mechanical' ) ;
#176 = CALENDAR_DATE ( 2015, 28, 4 ) ;
#177 = LINE ( 'NONE', #301, #54 ) ;
#178 = DIRECTION ( 'NONE',  ( 0.0000000000000000000, 0.0000000000000000000, 1.000000000000000000 ) ) ;
#179 = CIRCLE ( 'NONE', #16, 12.55857864376268800 ) ;
#180 = CIRCLE ( 'NONE', #181, 12.69999999999999900 ) ;
#181 = AXIS2_PLACEMENT_3D ( 'NONE', #58, #280, #97 ) ;
#182 = EDGE_CURVE ( 'NONE', #208, #144, #83, .T. ) ;
#183 = DIRECTION ( 'NONE',  ( 1.000000000000000000, 0.0000000000000000000, 0.0000000000000000000 ) ) ;
#184 = EDGE_LOOP ( 'NONE', ( #47, #173, #18, #119 ) ) ;
#185 = SECURITY_CLASSIFICATION_LEVEL ( 'unclassified' ) ;
#186 = DIRECTION ( 'NONE',  ( 1.000000000000000000, 0.0000000000000000000, 0.0000000000000000000 ) ) ;
#187 = DIRECTION ( 'NONE',  ( 1.000000000000000000, 0.0000000000000000000, 0.0000000000000000000 ) ) ;
#188 = ORIENTED_EDGE ( 'NONE', *, *, #256, .T. ) ;
#189 = APPROVAL_DATE_TIME ( #132, #252 ) ;
#190 = DIRECTION ( 'NONE',  ( 0.7071067811865519000, 0.0000000000000000000, 0.7071067811865431300 ) ) ;
#191 = FACE_OUTER_BOUND ( 'NONE', #237, .T. ) ;
#192 = COORDINATED_UNIVERSAL_TIME_OFFSET ( 5, 0, .BEHIND. ) ;
#193 = ORIENTED_EDGE ( 'NONE', *, *, #124, .F. ) ;
#194 = ORIENTED_EDGE ( 'NONE', *, *, #234, .T. ) ;
#195 = CC_DESIGN_DATE_AND_TIME_ASSIGNMENT ( #122, #229, ( #281 ) ) ;
#196 = COORDINATED_UNIVERSAL_TIME_OFFSET ( 5, 0, .BEHIND. ) ;
#197 = ORIENTED_EDGE ( 'NONE', *, *, #81, .F. ) ;
#198 = AXIS2_PLACEMENT_3D ( 'NONE', #84, #72, #67 ) ;
#199 = ORIENTED_EDGE ( 'NONE', *, *, #234, .F. ) ;
#200 = VECTOR ( 'NONE', #190, 1000.000000000000000 ) ;
#201 = ORIENTED_EDGE ( 'NONE', *, *, #81, .T. ) ;
#202 = ADVANCED_FACE ( 'NONE', ( #44 ), #104, .T. ) ;
#203 = CARTESIAN_POINT ( 'NONE',  ( -12.55857864376268800, 1.537982313792428500E-015, -1.504999999999999400 ) ) ;
#204 = CIRCLE ( 'NONE', #292, 12.69999999999999900 ) ;
#205 = DIRECTION ( 'NONE',  ( 1.000000000000000000, 0.0000000000000000000, 0.0000000000000000000 ) ) ;
#206 = ADVANCED_FACE ( 'NONE', ( #53 ), #260, .T. ) ;
#207 = DIRECTION ( 'NONE',  ( 1.000000000000000000, 0.0000000000000000000, 0.0000000000000000000 ) ) ;
#208 = VERTEX_POINT ( 'NONE', #12 ) ;
#209 = ORIENTED_EDGE ( 'NONE', *, *, #182, .F. ) ;
#210 = AXIS2_PLACEMENT_3D ( 'NONE', #101, #109, #92 ) ;
#211 = ORIENTED_EDGE ( 'NONE', *, *, #102, .F. ) ;
#212 = CARTESIAN_POINT ( 'NONE',  ( 0.0000000000000000000, 0.0000000000000000000, -1.504999999999999400 ) ) ;
#213 = DIRECTION ( 'NONE',  ( -0.0000000000000000000, -0.0000000000000000000, 1.000000000000000000 ) ) ;
#214 = DIRECTION ( 'NONE',  ( -0.0000000000000000000, -0.0000000000000000000, 1.000000000000000000 ) ) ;
#215 = LINE ( 'NONE', #203, #34 ) ;
#216 = EDGE_LOOP ( 'NONE', ( #289, #49, #146, #116 ) ) ;
#217 = PERSON_AND_ORGANIZATION_ROLE ( 'design_supplier' ) ;
#218 = APPROVAL_DATE_TIME ( #221, #282 ) ;
#219 = DATE_AND_TIME ( #82, #75 ) ;
#220 = EDGE_LOOP ( 'NONE', ( #209, #70 ) ) ;
#221 = DATE_AND_TIME ( #176, #28 ) ;
#222 = PERSON_AND_ORGANIZATION_ROLE ( 'creator' ) ;
#223 = LINE ( 'NONE', #126, #85 ) ;
#224 = CC_DESIGN_PERSON_AND_ORGANIZATION_ASSIGNMENT ( #127, #133, ( #136 ) ) ;
#225 = CC_DESIGN_DATE_AND_TIME_ASSIGNMENT ( #172, #291, ( #259 ) ) ;
#226 = DIRECTION ( 'NONE',  ( 0.7071067811865519000, 8.659560562354987100E-017, -0.7071067811865431300 ) ) ;
#227 = ORIENTED_EDGE ( 'NONE', *, *, #41, .F. ) ;
#228 = ORIENTED_EDGE ( 'NONE', *, *, #89, .F. ) ;
#229 = DATE_TIME_ROLE ( 'creation_date' ) ;
#230 = ADVANCED_FACE ( 'NONE', ( #100 ), #61, .T. ) ;
#231 = CIRCLE ( 'NONE', #63, 12.55857864376268800 ) ;
#232 = APPROVAL_STATUS ( 'not_yet_approved' ) ;
#233 = TOROIDAL_SURFACE ( 'NONE', #115, -0.01260228376516632500, 80.51000000000267700 ) ;
#234 = EDGE_CURVE ( 'NONE', #263, #129, #180, .T. ) ;
#235 = DIRECTION ( 'NONE',  ( 0.0000000000000000000, -1.000000000000000000, 0.0000000000000000000 ) ) ;
#236 = PRODUCT_DEFINITION_SHAPE ( 'NONE', 'NONE',  #281 ) ;
#237 = EDGE_LOOP ( 'NONE', ( #227, #211, #188, #138 ) ) ;
#238 = APPROVAL_ROLE ( '' ) ;
#239 = CYLINDRICAL_SURFACE ( 'NONE', #69, 12.69999999999999900 ) ;
#240 = PRODUCT_DEFINITION_FORMATION_WITH_SPECIFIED_SOURCE ( 'ANY', '', #136, .NOT_KNOWN. ) ;
#241 = COORDINATED_UNIVERSAL_TIME_OFFSET ( 5, 0, .BEHIND. ) ;
#242 = UNCERTAINTY_MEASURE_WITH_UNIT (LENGTH_MEASURE( 1.000000000000000100E-005 ), #9, 'distance_accuracy_value', 'NONE');
#243 = CALENDAR_DATE ( 2015, 28, 4 ) ;
#244 = LINE ( 'NONE', #272, #246 ) ;
#245 = DIRECTION ( 'NONE',  ( -0.0000000000000000000, -0.0000000000000000000, 1.000000000000000000 ) ) ;
#246 = VECTOR ( 'NONE', #299, 1000.000000000000000 ) ;
#247 = DIRECTION ( 'NONE',  ( -0.0000000000000000000, -0.0000000000000000000, 1.000000000000000000 ) ) ;
#248 = APPROVAL_ROLE ( '' ) ;
#249 = VERTEX_POINT ( 'NONE', #78 ) ;
#250 = ORIENTED_EDGE ( 'NONE', *, *, #163, .F. ) ;
#251 = CC_DESIGN_APPROVAL ( #252, ( #240 ) ) ;
#252 = APPROVAL ( #232, 'UNSPECIFIED' ) ;
#253 = ORIENTED_EDGE ( 'NONE', *, *, #156, .F. ) ;
#254 = EDGE_LOOP ( 'NONE', ( #197, #145, #14 ) ) ;
#255 = EDGE_LOOP ( 'NONE', ( #262, #42, #155, #5 ) ) ;
#256 = EDGE_CURVE ( 'NONE', #30, #249, #45, .T. ) ;
#257 = DIRECTION ( 'NONE',  ( -0.0000000000000000000, -0.0000000000000000000, 1.000000000000000000 ) ) ;
#258 = DIRECTION ( 'NONE',  ( 1.000000000000000000, 0.0000000000000000000, 0.0000000000000000000 ) ) ;
#259 = SECURITY_CLASSIFICATION ( '', '', #185 ) ;
#260 = CONICAL_SURFACE ( 'NONE', #48, 12.69999999999999900, 0.7853981633974545000 ) ;
#261 = COORDINATED_UNIVERSAL_TIME_OFFSET ( 5, 0, .BEHIND. ) ;
#262 = ORIENTED_EDGE ( 'NONE', *, *, #182, .T. ) ;
#263 = VERTEX_POINT ( 'NONE', #267 ) ;
#264 = VERTEX_POINT ( 'NONE', #278 ) ;
#265 = AXIS2_PLACEMENT_3D ( 'NONE', #29, #99, #25 ) ;
#266 = AXIS2_PLACEMENT_3D ( 'NONE', #294, #157, #74 ) ;
#267 = CARTESIAN_POINT ( 'NONE',  ( -12.69999999999999900, 1.555301434917138400E-015, -1.363578643762689800 ) ) ;
#268 = CALENDAR_DATE ( 2015, 28, 4 ) ;
#269 = AXIS2_PLACEMENT_3D ( 'NONE', #212, #247, #258 ) ;
#270 = APPROVAL_ROLE ( '' ) ;
#271 = PERSON_AND_ORGANIZATION ( #171, #38 ) ;
#272 = CARTESIAN_POINT ( 'NONE',  ( -12.69999999999999900, 1.555301434917138400E-015, 20.94080269199658100 ) ) ;
#273 = AXIS2_PLACEMENT_3D ( 'NONE', #117, #91, #205 ) ;
#274 = CARTESIAN_POINT ( 'NONE',  ( -0.01260228376516632500, 0.0000000000000000000, -79.00499901368074500 ) ) ;
#275 = CALENDAR_DATE ( 2015, 28, 4 ) ;
#276 = PERSON_AND_ORGANIZATION ( #171, #38 ) ;
#277 = DIRECTION ( 'NONE',  ( -1.000000000000000000, 0.0000000000000000000, 0.0000000000000000000 ) ) ;
#278 = CARTESIAN_POINT ( 'NONE',  ( 12.55857864376270400, 0.0000000000000000000, 0.5174852916262004900 ) ) ;
#279 = CARTESIAN_POINT ( 'NONE',  ( 0.0000000000000000000, 0.0000000000000000000, 0.0000000000000000000 ) ) ;
#280 = DIRECTION ( 'NONE',  ( -0.0000000000000000000, -0.0000000000000000000, 1.000000000000000000 ) ) ;
#281 = PRODUCT_DEFINITION ( 'UNKNOWN', '', #240, #166 ) ;
#282 = APPROVAL ( #43, 'UNSPECIFIED' ) ;
#283 = ADVANCED_FACE ( 'NONE', ( #96 ), #233, .T. ) ;
#284 = CONICAL_SURFACE ( 'NONE', #32, 12.69999999999999900, 0.7853981633974545000 ) ;
#285 = CARTESIAN_POINT ( 'NONE',  ( 0.0000000000000000000, 0.0000000000000000000, -79.00499901368074500 ) ) ;
#286 = APPLICATION_PROTOCOL_DEFINITION ( 'international standard', 'config_control_design', 1994, #59 ) ;
#287 = APPLICATION_CONTEXT ( 'configuration controlled 3d designs of mechanical parts and assemblies' ) ;
#288 = EDGE_CURVE ( 'NONE', #7, #249, #142, .T. ) ;
#289 = ORIENTED_EDGE ( 'NONE', *, *, #290, .T. ) ;
#290 = EDGE_CURVE ( 'NONE', #129, #263, #10, .T. ) ;
#291 = DATE_TIME_ROLE ( 'classification_date' ) ;
#292 = AXIS2_PLACEMENT_3D ( 'NONE', #51, #214, #130 ) ;
#293 = DIRECTION ( 'NONE',  ( -0.7071067811865519000, 8.659560562354987100E-017, 0.7071067811865431300 ) ) ;
#294 = CARTESIAN_POINT ( 'NONE',  ( 0.0000000000000000000, 0.0000000000000000000, -1.504999999999999400 ) ) ;
#295 = FACE_OUTER_BOUND ( 'NONE', #128, .T. ) ;
#296 = CARTESIAN_POINT ( 'NONE',  ( 0.01260228376516632500, -1.543334647495759600E-018, -79.00499901368074500 ) ) ;
#297 = CYLINDRICAL_SURFACE ( 'NONE', #210, 12.69999999999999900 ) ;
#298 = CARTESIAN_POINT ( 'NONE',  ( 0.0000000000000000000, 0.0000000000000000000, 0.3760639353888977100 ) ) ;
#299 = DIRECTION ( 'NONE',  ( -0.0000000000000000000, -0.0000000000000000000, 1.000000000000000000 ) ) ;
#300 = EDGE_LOOP ( 'NONE', ( #253, #111, #4, #199 ) ) ;
#301 = CARTESIAN_POINT ( 'NONE',  ( 12.69999999999999900, 0.0000000000000000000, 20.94080269199658100 ) ) ;
ENDSEC;
END-ISO-10303-21;
