ISO-10303-21;
HEADER;
FILE_DESCRIPTION (( 'STEP AP203' ),
    '1' );
FILE_NAME ('Web Model 39284_39284.step',
    '2018-10-09T13:26:32',
    ( '' ),
    ( '' ),
    'SwSTEP 2.0',
    'SolidWorks 2016',
    '' );
FILE_SCHEMA (( 'CONFIG_CONTROL_DESIGN' ));
ENDSEC;

DATA;
#1 = COORDINATED_UNIVERSAL_TIME_OFFSET ( 5, 0, .BEHIND. ) ;
#2 = AXIS2_PLACEMENT_3D ( 'NONE', #123, #107, #43 ) ;
#3 = VERTEX_POINT ( 'NONE', #7 ) ;
#4 = DIRECTION ( 'NONE',  ( -0.0000000000000000000, -0.0000000000000000000, -1.000000000000000000 ) ) ;
#5 = PERSON_AND_ORGANIZATION ( #78, #111 ) ;
#6 = ORIENTED_EDGE ( 'NONE', *, *, #69, .T. ) ;
#7 = CARTESIAN_POINT ( 'NONE',  ( 19.05000000000000100, 2.332952152375708000E-015, 1.500000000000000000 ) ) ;
#8 = CC_DESIGN_DATE_AND_TIME_ASSIGNMENT ( #88, #13, ( #167 ) ) ;
#9 = EDGE_CURVE ( 'NONE', #174, #3, #134, .T. ) ;
#10 = DIRECTION ( 'NONE',  ( 1.000000000000000000, 0.0000000000000000000, -0.0000000000000000000 ) ) ;
#11 = DIRECTION ( 'NONE',  ( -0.0000000000000000000, -0.0000000000000000000, -1.000000000000000000 ) ) ;
#12 = PERSON_AND_ORGANIZATION ( #78, #111 ) ;
#13 = DATE_TIME_ROLE ( 'classification_date' ) ;
#14 = APPROVAL_PERSON_ORGANIZATION ( #48, #126, #130 ) ;
#15 = EDGE_LOOP ( 'NONE', ( #143, #58 ) ) ;
#16 = CC_DESIGN_PERSON_AND_ORGANIZATION_ASSIGNMENT ( #33, #67, ( #63 ) ) ;
#17 = AXIS2_PLACEMENT_3D ( 'NONE', #22, #113, #35 ) ;
#18 = CIRCLE ( 'NONE', #105, 19.05000000000000100 ) ;
#19 = AXIS2_PLACEMENT_3D ( 'NONE', #91, #24, #104 ) ;
#20 = DATE_AND_TIME ( #68, #31 ) ;
#21 = VERTEX_POINT ( 'NONE', #127 ) ;
#22 = CARTESIAN_POINT ( 'NONE',  ( 0.0000000000000000000, 0.0000000000000000000, 1.500000000000000000 ) ) ;
#23 = FACE_OUTER_BOUND ( 'NONE', #15, .T. ) ;
#24 = DIRECTION ( 'NONE',  ( 0.0000000000000000000, 0.0000000000000000000, 1.000000000000000000 ) ) ;
#25 = APPROVAL_PERSON_ORGANIZATION ( #5, #47, #159 ) ;
#26 = CC_DESIGN_DATE_AND_TIME_ASSIGNMENT ( #71, #172, ( #63 ) ) ;
#27 = CARTESIAN_POINT ( 'NONE',  ( -19.05000000000000100, 0.0000000000000000000, 1.500000000000000000 ) ) ;
#28 = APPROVAL_ROLE ( '' ) ;
#29 =( LENGTH_UNIT ( ) NAMED_UNIT ( * ) SI_UNIT ( .MILLI., .METRE. ) );
#30 = APPROVAL_DATE_TIME ( #136, #47 ) ;
#31 = LOCAL_TIME ( 9, 26, 32.00000000000000000, #173 ) ;
#32 = ORIENTED_EDGE ( 'NONE', *, *, #97, .F. ) ;
#33 = PERSON_AND_ORGANIZATION ( #78, #111 ) ;
#34 = EDGE_CURVE ( 'NONE', #3, #21, #86, .T. ) ;
#35 = DIRECTION ( 'NONE',  ( 1.000000000000000000, 0.0000000000000000000, 0.0000000000000000000 ) ) ;
#36 = LOCAL_TIME ( 9, 26, 32.00000000000000000, #1 ) ;
#37 = DIRECTION ( 'NONE',  ( -1.000000000000000000, 0.0000000000000000000, 0.0000000000000000000 ) ) ;
#38 = AXIS2_PLACEMENT_3D ( 'NONE', #70, #144, #10 ) ;
#39 = ADVANCED_FACE ( 'NONE', ( #125 ), #166, .T. ) ;
#40 = APPLICATION_PROTOCOL_DEFINITION ( 'international standard', 'config_control_design', 1994, #170 ) ;
#41 =( NAMED_UNIT ( * ) PLANE_ANGLE_UNIT ( ) SI_UNIT ( $, .RADIAN. ) );
#42 = PRODUCT_DEFINITION_SHAPE ( 'NONE', 'NONE',  #63 ) ;
#43 = DIRECTION ( 'NONE',  ( -1.000000000000000000, 0.0000000000000000000, 0.0000000000000000000 ) ) ;
#44 = VERTEX_POINT ( 'NONE', #142 ) ;
#45 = PRODUCT_DEFINITION_FORMATION_WITH_SPECIFIED_SOURCE ( 'ANY', '', #140, .NOT_KNOWN. ) ;
#46 = CARTESIAN_POINT ( 'NONE',  ( 0.0000000000000000000, 0.0000000000000000000, -1.500000000000000000 ) ) ;
#47 = APPROVAL ( #65, 'UNSPECIFIED' ) ;
#48 = PERSON_AND_ORGANIZATION ( #78, #111 ) ;
#49 = PERSON_AND_ORGANIZATION ( #78, #111 ) ;
#50 = ORIENTED_EDGE ( 'NONE', *, *, #9, .F. ) ;
#51 = DIRECTION ( 'NONE',  ( 1.000000000000000000, 0.0000000000000000000, 0.0000000000000000000 ) ) ;
#52 =( NAMED_UNIT ( * ) SI_UNIT ( $, .STERADIAN. ) SOLID_ANGLE_UNIT ( ) );
#53 = APPROVAL_DATE_TIME ( #20, #108 ) ;
#54 = CARTESIAN_POINT ( 'NONE',  ( 0.0000000000000000000, 0.0000000000000000000, -1.500000000000000000 ) ) ;
#55 = DIRECTION ( 'NONE',  ( 1.000000000000000000, 0.0000000000000000000, 0.0000000000000000000 ) ) ;
#56 = EDGE_LOOP ( 'NONE', ( #168, #102 ) ) ;
#57 = CALENDAR_DATE ( 2018, 9, 10 ) ;
#58 = ORIENTED_EDGE ( 'NONE', *, *, #92, .F. ) ;
#59 = PERSON_AND_ORGANIZATION ( #78, #111 ) ;
#60 = PERSON_AND_ORGANIZATION ( #78, #111 ) ;
#61 = CC_DESIGN_APPROVAL ( #47, ( #45 ) ) ;
#62 = ORIENTED_EDGE ( 'NONE', *, *, #165, .T. ) ;
#63 = PRODUCT_DEFINITION ( 'UNKNOWN', '', #45, #139 ) ;
#64 = APPLICATION_PROTOCOL_DEFINITION ( 'international standard', 'config_control_design', 1994, #129 ) ;
#65 = APPROVAL_STATUS ( 'not_yet_approved' ) ;
#66 = PERSON_AND_ORGANIZATION_ROLE ( 'creator' ) ;
#67 = PERSON_AND_ORGANIZATION_ROLE ( 'creator' ) ;
#68 = CALENDAR_DATE ( 2018, 9, 10 ) ;
#69 = EDGE_CURVE ( 'NONE', #44, #21, #98, .T. ) ;
#70 = CARTESIAN_POINT ( 'NONE',  ( 0.0000000000000000000, 0.0000000000000000000, 1.500000000000000000 ) ) ;
#71 = DATE_AND_TIME ( #57, #36 ) ;
#72 = FACE_OUTER_BOUND ( 'NONE', #76, .T. ) ;
#73 = CC_DESIGN_SECURITY_CLASSIFICATION ( #167, ( #45 ) ) ;
#74 = APPROVAL_DATE_TIME ( #110, #126 ) ;
#75 = CARTESIAN_POINT ( 'NONE',  ( 19.05000000000000100, 2.332952152375708000E-015, 1.500000000000000000 ) ) ;
#76 = EDGE_LOOP ( 'NONE', ( #90, #50, #62, #6 ) ) ;
#77 = DIRECTION ( 'NONE',  ( 0.0000000000000000000, 0.0000000000000000000, 1.000000000000000000 ) ) ;
#78 = PERSON ( 'UNSPECIFIED', 'UNSPECIFIED', 'UNSPECIFIED', ('UNSPECIFIED'), ('UNSPECIFIED'), ('UNSPECIFIED') ) ;
#79 = MECHANICAL_CONTEXT ( 'NONE', #129, 'mechanical' ) ;
#80 = MANIFOLD_SOLID_BREP ( 'Boss-Extrude1', #160 ) ;
#81 = DIRECTION ( 'NONE',  ( 0.0000000000000000000, 0.0000000000000000000, 1.000000000000000000 ) ) ;
#82 = CC_DESIGN_PERSON_AND_ORGANIZATION_ASSIGNMENT ( #49, #66, ( #45 ) ) ;
#83 = DIRECTION ( 'NONE',  ( 1.000000000000000000, 0.0000000000000000000, -0.0000000000000000000 ) ) ;
#84 = CIRCLE ( 'NONE', #149, 19.05000000000000100 ) ;
#85 = AXIS2_PLACEMENT_3D ( 'NONE', #148, #103, #83 ) ;
#86 = LINE ( 'NONE', #75, #117 ) ;
#87 = ADVANCED_BREP_SHAPE_REPRESENTATION ( 'Web Model 39284_39284', ( #80, #19 ), #137 ) ;
#88 = DATE_AND_TIME ( #128, #101 ) ;
#89 = CYLINDRICAL_SURFACE ( 'NONE', #2, 19.05000000000000100 ) ;
#90 = ORIENTED_EDGE ( 'NONE', *, *, #34, .F. ) ;
#91 = CARTESIAN_POINT ( 'NONE',  ( 0.0000000000000000000, 0.0000000000000000000, 0.0000000000000000000 ) ) ;
#92 = EDGE_CURVE ( 'NONE', #21, #44, #84, .T. ) ;
#93 = APPROVAL_STATUS ( 'not_yet_approved' ) ;
#94 = PERSON_AND_ORGANIZATION_ROLE ( 'classification_officer' ) ;
#95 = ORIENTED_EDGE ( 'NONE', *, *, #165, .F. ) ;
#96 = CALENDAR_DATE ( 2018, 9, 10 ) ;
#97 = EDGE_CURVE ( 'NONE', #3, #174, #18, .T. ) ;
#98 = CIRCLE ( 'NONE', #153, 19.05000000000000100 ) ;
#99 = COORDINATED_UNIVERSAL_TIME_OFFSET ( 5, 0, .BEHIND. ) ;
#100 = UNCERTAINTY_MEASURE_WITH_UNIT (LENGTH_MEASURE( 1.000000000000000100E-005 ), #29, 'distance_accuracy_value', 'NONE');
#101 = LOCAL_TIME ( 9, 26, 32.00000000000000000, #99 ) ;
#102 = ORIENTED_EDGE ( 'NONE', *, *, #97, .T. ) ;
#103 = DIRECTION ( 'NONE',  ( 0.0000000000000000000, 0.0000000000000000000, 1.000000000000000000 ) ) ;
#104 = DIRECTION ( 'NONE',  ( 1.000000000000000000, 0.0000000000000000000, 0.0000000000000000000 ) ) ;
#105 = AXIS2_PLACEMENT_3D ( 'NONE', #162, #81, #55 ) ;
#106 = PERSON_AND_ORGANIZATION_ROLE ( 'design_supplier' ) ;
#107 = DIRECTION ( 'NONE',  ( -0.0000000000000000000, -0.0000000000000000000, -1.000000000000000000 ) ) ;
#108 = APPROVAL ( #131, 'UNSPECIFIED' ) ;
#109 = CC_DESIGN_PERSON_AND_ORGANIZATION_ASSIGNMENT ( #59, #145, ( #140 ) ) ;
#110 = DATE_AND_TIME ( #147, #164 ) ;
#111 = ORGANIZATION ( 'UNSPECIFIED', 'UNSPECIFIED', '' ) ;
#112 = ADVANCED_FACE ( 'NONE', ( #157 ), #158, .T. ) ;
#113 = DIRECTION ( 'NONE',  ( 0.0000000000000000000, 0.0000000000000000000, 1.000000000000000000 ) ) ;
#114 = VECTOR ( 'NONE', #11, 1000.000000000000000 ) ;
#115 = ADVANCED_FACE ( 'NONE', ( #23 ), #146, .F. ) ;
#116 = CC_DESIGN_PERSON_AND_ORGANIZATION_ASSIGNMENT ( #60, #94, ( #167 ) ) ;
#117 = VECTOR ( 'NONE', #169, 1000.000000000000000 ) ;
#118 = CC_DESIGN_APPROVAL ( #108, ( #167 ) ) ;
#119 = ADVANCED_FACE ( 'NONE', ( #72 ), #89, .T. ) ;
#120 = AXIS2_PLACEMENT_3D ( 'NONE', #155, #4, #37 ) ;
#121 = DIRECTION ( 'NONE',  ( 1.000000000000000000, 0.0000000000000000000, 0.0000000000000000000 ) ) ;
#122 = LINE ( 'NONE', #27, #114 ) ;
#123 = CARTESIAN_POINT ( 'NONE',  ( 0.0000000000000000000, 0.0000000000000000000, 1.500000000000000000 ) ) ;
#124 = CARTESIAN_POINT ( 'NONE',  ( -19.05000000000000100, 0.0000000000000000000, 1.500000000000000000 ) ) ;
#125 = FACE_OUTER_BOUND ( 'NONE', #138, .T. ) ;
#126 = APPROVAL ( #93, 'UNSPECIFIED' ) ;
#127 = CARTESIAN_POINT ( 'NONE',  ( 19.05000000000000100, 2.332952152375708000E-015, -1.500000000000000000 ) ) ;
#128 = CALENDAR_DATE ( 2018, 9, 10 ) ;
#129 = APPLICATION_CONTEXT ( 'configuration controlled 3d designs of mechanical parts and assemblies' ) ;
#130 = APPROVAL_ROLE ( '' ) ;
#131 = APPROVAL_STATUS ( 'not_yet_approved' ) ;
#132 = DIRECTION ( 'NONE',  ( 0.0000000000000000000, 0.0000000000000000000, 1.000000000000000000 ) ) ;
#133 = LOCAL_TIME ( 9, 26, 32.00000000000000000, #151 ) ;
#134 = CIRCLE ( 'NONE', #17, 19.05000000000000100 ) ;
#135 = PRODUCT_RELATED_PRODUCT_CATEGORY ( 'detail', '', ( #140 ) ) ;
#136 = DATE_AND_TIME ( #96, #133 ) ;
#137 =( GEOMETRIC_REPRESENTATION_CONTEXT ( 3 ) GLOBAL_UNCERTAINTY_ASSIGNED_CONTEXT ( ( #100 ) ) GLOBAL_UNIT_ASSIGNED_CONTEXT ( ( #29, #41, #52 ) ) REPRESENTATION_CONTEXT ( 'NONE', 'WORKASPACE' ) );
#138 = EDGE_LOOP ( 'NONE', ( #32, #154, #141, #95 ) ) ;
#139 = DESIGN_CONTEXT ( 'detailed design', #170, 'design' ) ;
#140 = PRODUCT ( 'Web Model 39284_39284', 'Web Model 39284_39284', '', ( #79 ) ) ;
#141 = ORIENTED_EDGE ( 'NONE', *, *, #92, .T. ) ;
#142 = CARTESIAN_POINT ( 'NONE',  ( -19.05000000000000100, 0.0000000000000000000, -1.500000000000000000 ) ) ;
#143 = ORIENTED_EDGE ( 'NONE', *, *, #69, .F. ) ;
#144 = DIRECTION ( 'NONE',  ( 0.0000000000000000000, 0.0000000000000000000, 1.000000000000000000 ) ) ;
#145 = PERSON_AND_ORGANIZATION_ROLE ( 'design_owner' ) ;
#146 = PLANE ( 'NONE',  #85 ) ;
#147 = CALENDAR_DATE ( 2018, 9, 10 ) ;
#148 = CARTESIAN_POINT ( 'NONE',  ( 0.0000000000000000000, 0.0000000000000000000, -1.500000000000000000 ) ) ;
#149 = AXIS2_PLACEMENT_3D ( 'NONE', #54, #132, #121 ) ;
#150 = SHAPE_DEFINITION_REPRESENTATION ( #42, #87 ) ;
#151 = COORDINATED_UNIVERSAL_TIME_OFFSET ( 5, 0, .BEHIND. ) ;
#152 = COORDINATED_UNIVERSAL_TIME_OFFSET ( 5, 0, .BEHIND. ) ;
#153 = AXIS2_PLACEMENT_3D ( 'NONE', #46, #77, #51 ) ;
#154 = ORIENTED_EDGE ( 'NONE', *, *, #34, .T. ) ;
#155 = CARTESIAN_POINT ( 'NONE',  ( 0.0000000000000000000, 0.0000000000000000000, 1.500000000000000000 ) ) ;
#156 = CC_DESIGN_PERSON_AND_ORGANIZATION_ASSIGNMENT ( #175, #106, ( #45 ) ) ;
#157 = FACE_OUTER_BOUND ( 'NONE', #56, .T. ) ;
#158 = PLANE ( 'NONE',  #38 ) ;
#159 = APPROVAL_ROLE ( '' ) ;
#160 = CLOSED_SHELL ( 'NONE', ( #39, #119, #112, #115 ) ) ;
#161 = SECURITY_CLASSIFICATION_LEVEL ( 'unclassified' ) ;
#162 = CARTESIAN_POINT ( 'NONE',  ( 0.0000000000000000000, 0.0000000000000000000, 1.500000000000000000 ) ) ;
#163 = APPROVAL_PERSON_ORGANIZATION ( #12, #108, #28 ) ;
#164 = LOCAL_TIME ( 9, 26, 32.00000000000000000, #152 ) ;
#165 = EDGE_CURVE ( 'NONE', #174, #44, #122, .T. ) ;
#166 = CYLINDRICAL_SURFACE ( 'NONE', #120, 19.05000000000000100 ) ;
#167 = SECURITY_CLASSIFICATION ( '', '', #161 ) ;
#168 = ORIENTED_EDGE ( 'NONE', *, *, #9, .T. ) ;
#169 = DIRECTION ( 'NONE',  ( -0.0000000000000000000, -0.0000000000000000000, -1.000000000000000000 ) ) ;
#170 = APPLICATION_CONTEXT ( 'configuration controlled 3d designs of mechanical parts and assemblies' ) ;
#171 = CC_DESIGN_APPROVAL ( #126, ( #63 ) ) ;
#172 = DATE_TIME_ROLE ( 'creation_date' ) ;
#173 = COORDINATED_UNIVERSAL_TIME_OFFSET ( 5, 0, .BEHIND. ) ;
#174 = VERTEX_POINT ( 'NONE', #124 ) ;
#175 = PERSON_AND_ORGANIZATION ( #78, #111 ) ;
ENDSEC;
END-ISO-10303-21;
