ISO-10303-21;
HEADER;
FILE_DESCRIPTION (( 'STEP AP203' ),
    '1' );
FILE_NAME ('Web Model 45464_45811.step',
    '2019-01-07T15:37:37',
    ( '' ),
    ( '' ),
    'SwSTEP 2.0',
    'SolidWorks 2016',
    '' );
FILE_SCHEMA (( 'CONFIG_CONTROL_DESIGN' ));
ENDSEC;

DATA;
#1 = EDGE_LOOP ( 'NONE', ( #7, #108, #18, #92 ) ) ;
#2 = AXIS2_PLACEMENT_3D ( 'NONE', #72, #122, #85 ) ;
#3 = APPROVAL_STATUS ( 'not_yet_approved' ) ;
#4 = PERSON_AND_ORGANIZATION_ROLE ( 'creator' ) ;
#5 = EDGE_LOOP ( 'NONE', ( #139, #106 ) ) ;
#6 = DIRECTION ( 'NONE',  ( 0.0000000000000000000, 0.0000000000000000000, 1.000000000000000000 ) ) ;
#7 = ORIENTED_EDGE ( 'NONE', *, *, #158, .F. ) ;
#8 = DIRECTION ( 'NONE',  ( -1.000000000000000000, 0.0000000000000000000, 0.0000000000000000000 ) ) ;
#9 = CARTESIAN_POINT ( 'NONE',  ( 0.0000000000000000000, 0.0000000000000000000, 1.000000000000000000 ) ) ;
#10 = VECTOR ( 'NONE', #99, 1000.000000000000000 ) ;
#11 = APPROVAL ( #80, 'UNSPECIFIED' ) ;
#12 = CALENDAR_DATE ( 2019, 7, 1 ) ;
#13 = EDGE_LOOP ( 'NONE', ( #162, #40, #24, #118 ) ) ;
#14 = FACE_OUTER_BOUND ( 'NONE', #13, .T. ) ;
#15 = ADVANCED_FACE ( 'NONE', ( #172 ), #171, .T. ) ;
#16 = LOCAL_TIME ( 10, 37, 37.00000000000000000, #105 ) ;
#17 = APPROVAL_ROLE ( '' ) ;
#18 = ORIENTED_EDGE ( 'NONE', *, *, #57, .T. ) ;
#19 = APPROVAL_PERSON_ORGANIZATION ( #88, #146, #73 ) ;
#20 = DIRECTION ( 'NONE',  ( 0.0000000000000000000, 0.0000000000000000000, 1.000000000000000000 ) ) ;
#21 = PLANE ( 'NONE',  #63 ) ;
#22 = DIRECTION ( 'NONE',  ( 0.0000000000000000000, 0.0000000000000000000, 1.000000000000000000 ) ) ;
#23 = CALENDAR_DATE ( 2019, 7, 1 ) ;
#24 = ORIENTED_EDGE ( 'NONE', *, *, #119, .T. ) ;
#25 = PRODUCT ( 'Web Model 45464_45811', 'Web Model 45464_45811', '', ( #131 ) ) ;
#26 = DATE_AND_TIME ( #12, #77 ) ;
#27 = PRODUCT_DEFINITION_SHAPE ( 'NONE', 'NONE',  #29 ) ;
#28 = CYLINDRICAL_SURFACE ( 'NONE', #104, 10.00000000000000000 ) ;
#29 = PRODUCT_DEFINITION ( 'UNKNOWN', '', #174, #100 ) ;
#30 = DATE_TIME_ROLE ( 'creation_date' ) ;
#31 = ADVANCED_FACE ( 'NONE', ( #66 ), #21, .T. ) ;
#32 = DIRECTION ( 'NONE',  ( -0.0000000000000000000, -0.0000000000000000000, -1.000000000000000000 ) ) ;
#33 = APPROVAL_PERSON_ORGANIZATION ( #86, #87, #17 ) ;
#34 = DIRECTION ( 'NONE',  ( 0.0000000000000000000, 0.0000000000000000000, 1.000000000000000000 ) ) ;
#35 = CARTESIAN_POINT ( 'NONE',  ( 10.00000000000000000, 1.224646799147353300E-015, -1.000000000000000000 ) ) ;
#36 = EDGE_CURVE ( 'NONE', #74, #123, #150, .T. ) ;
#37 = CALENDAR_DATE ( 2019, 7, 1 ) ;
#38 = DIRECTION ( 'NONE',  ( 1.000000000000000000, 0.0000000000000000000, 0.0000000000000000000 ) ) ;
#39 = LOCAL_TIME ( 10, 37, 37.00000000000000000, #115 ) ;
#40 = ORIENTED_EDGE ( 'NONE', *, *, #158, .T. ) ;
#41 = CC_DESIGN_APPROVAL ( #87, ( #29 ) ) ;
#42 = ADVANCED_FACE ( 'NONE', ( #14 ), #28, .T. ) ;
#43 = DIRECTION ( 'NONE',  ( -1.000000000000000000, 0.0000000000000000000, 0.0000000000000000000 ) ) ;
#44 = PERSON_AND_ORGANIZATION_ROLE ( 'creator' ) ;
#45 = VERTEX_POINT ( 'NONE', #151 ) ;
#46 = CARTESIAN_POINT ( 'NONE',  ( 0.0000000000000000000, 0.0000000000000000000, -1.000000000000000000 ) ) ;
#47 = SECURITY_CLASSIFICATION ( '', '', #148 ) ;
#48 = DIRECTION ( 'NONE',  ( -0.0000000000000000000, -0.0000000000000000000, -1.000000000000000000 ) ) ;
#49 = CARTESIAN_POINT ( 'NONE',  ( 0.0000000000000000000, 0.0000000000000000000, -1.000000000000000000 ) ) ;
#50 = CC_DESIGN_PERSON_AND_ORGANIZATION_ASSIGNMENT ( #113, #70, ( #174 ) ) ;
#51 = LINE ( 'NONE', #109, #10 ) ;
#52 =( GEOMETRIC_REPRESENTATION_CONTEXT ( 3 ) GLOBAL_UNCERTAINTY_ASSIGNED_CONTEXT ( ( #138 ) ) GLOBAL_UNIT_ASSIGNED_CONTEXT ( ( #136, #124, #173 ) ) REPRESENTATION_CONTEXT ( 'NONE', 'WORKASPACE' ) );
#53 = COORDINATED_UNIVERSAL_TIME_OFFSET ( 5, 0, .BEHIND. ) ;
#54 = VECTOR ( 'NONE', #134, 1000.000000000000000 ) ;
#55 = CC_DESIGN_DATE_AND_TIME_ASSIGNMENT ( #94, #76, ( #47 ) ) ;
#56 = APPLICATION_CONTEXT ( 'configuration controlled 3d designs of mechanical parts and assemblies' ) ;
#57 = EDGE_CURVE ( 'NONE', #123, #45, #51, .T. ) ;
#58 = LOCAL_TIME ( 10, 37, 37.00000000000000000, #91 ) ;
#59 = PLANE ( 'NONE',  #79 ) ;
#60 = DIRECTION ( 'NONE',  ( 0.0000000000000000000, 0.0000000000000000000, 1.000000000000000000 ) ) ;
#61 = PERSON_AND_ORGANIZATION ( #137, #64 ) ;
#62 = CARTESIAN_POINT ( 'NONE',  ( 0.0000000000000000000, 0.0000000000000000000, 1.000000000000000000 ) ) ;
#63 = AXIS2_PLACEMENT_3D ( 'NONE', #9, #120, #170 ) ;
#64 = ORGANIZATION ( 'UNSPECIFIED', 'UNSPECIFIED', '' ) ;
#65 = FACE_OUTER_BOUND ( 'NONE', #128, .T. ) ;
#66 = FACE_OUTER_BOUND ( 'NONE', #5, .T. ) ;
#67 = APPROVAL_DATE_TIME ( #84, #146 ) ;
#68 = DIRECTION ( 'NONE',  ( 1.000000000000000000, 0.0000000000000000000, 0.0000000000000000000 ) ) ;
#69 = APPLICATION_CONTEXT ( 'configuration controlled 3d designs of mechanical parts and assemblies' ) ;
#70 = PERSON_AND_ORGANIZATION_ROLE ( 'design_supplier' ) ;
#71 = MANIFOLD_SOLID_BREP ( 'Boss-Extrude1', #95 ) ;
#72 = CARTESIAN_POINT ( 'NONE',  ( 0.0000000000000000000, 0.0000000000000000000, -1.000000000000000000 ) ) ;
#73 = APPROVAL_ROLE ( '' ) ;
#74 = VERTEX_POINT ( 'NONE', #168 ) ;
#75 = DIRECTION ( 'NONE',  ( 1.000000000000000000, 0.0000000000000000000, 0.0000000000000000000 ) ) ;
#76 = DATE_TIME_ROLE ( 'classification_date' ) ;
#77 = LOCAL_TIME ( 10, 37, 37.00000000000000000, #53 ) ;
#78 = APPROVAL_DATE_TIME ( #26, #11 ) ;
#79 = AXIS2_PLACEMENT_3D ( 'NONE', #46, #60, #149 ) ;
#80 = APPROVAL_STATUS ( 'not_yet_approved' ) ;
#81 = AXIS2_PLACEMENT_3D ( 'NONE', #145, #6, #68 ) ;
#82 = DATE_AND_TIME ( #110, #16 ) ;
#83 = CARTESIAN_POINT ( 'NONE',  ( 0.0000000000000000000, 0.0000000000000000000, 1.000000000000000000 ) ) ;
#84 = DATE_AND_TIME ( #37, #39 ) ;
#85 = DIRECTION ( 'NONE',  ( 1.000000000000000000, 0.0000000000000000000, 0.0000000000000000000 ) ) ;
#86 = PERSON_AND_ORGANIZATION ( #137, #64 ) ;
#87 = APPROVAL ( #3, 'UNSPECIFIED' ) ;
#88 = PERSON_AND_ORGANIZATION ( #137, #64 ) ;
#89 = CC_DESIGN_DATE_AND_TIME_ASSIGNMENT ( #82, #30, ( #29 ) ) ;
#90 = EDGE_CURVE ( 'NONE', #123, #74, #127, .T. ) ;
#91 = COORDINATED_UNIVERSAL_TIME_OFFSET ( 5, 0, .BEHIND. ) ;
#92 = ORIENTED_EDGE ( 'NONE', *, *, #133, .T. ) ;
#93 = CC_DESIGN_PERSON_AND_ORGANIZATION_ASSIGNMENT ( #112, #97, ( #25 ) ) ;
#94 = DATE_AND_TIME ( #144, #142 ) ;
#95 = CLOSED_SHELL ( 'NONE', ( #42, #15, #31, #166 ) ) ;
#96 = CARTESIAN_POINT ( 'NONE',  ( 0.0000000000000000000, 0.0000000000000000000, 1.000000000000000000 ) ) ;
#97 = PERSON_AND_ORGANIZATION_ROLE ( 'design_owner' ) ;
#98 = CC_DESIGN_PERSON_AND_ORGANIZATION_ASSIGNMENT ( #154, #4, ( #174 ) ) ;
#99 = DIRECTION ( 'NONE',  ( -0.0000000000000000000, -0.0000000000000000000, -1.000000000000000000 ) ) ;
#100 = DESIGN_CONTEXT ( 'detailed design', #69, 'design' ) ;
#101 = DIRECTION ( 'NONE',  ( 1.000000000000000000, 0.0000000000000000000, 0.0000000000000000000 ) ) ;
#102 = PERSON_AND_ORGANIZATION ( #137, #64 ) ;
#103 = VERTEX_POINT ( 'NONE', #35 ) ;
#104 = AXIS2_PLACEMENT_3D ( 'NONE', #96, #48, #8 ) ;
#105 = COORDINATED_UNIVERSAL_TIME_OFFSET ( 5, 0, .BEHIND. ) ;
#106 = ORIENTED_EDGE ( 'NONE', *, *, #36, .T. ) ;
#107 = APPLICATION_PROTOCOL_DEFINITION ( 'international standard', 'config_control_design', 1994, #69 ) ;
#108 = ORIENTED_EDGE ( 'NONE', *, *, #90, .F. ) ;
#109 = CARTESIAN_POINT ( 'NONE',  ( -10.00000000000000000, 0.0000000000000000000, 1.000000000000000000 ) ) ;
#110 = CALENDAR_DATE ( 2019, 7, 1 ) ;
#111 = AXIS2_PLACEMENT_3D ( 'NONE', #83, #32, #43 ) ;
#112 = PERSON_AND_ORGANIZATION ( #137, #64 ) ;
#113 = PERSON_AND_ORGANIZATION ( #137, #64 ) ;
#114 = APPLICATION_PROTOCOL_DEFINITION ( 'international standard', 'config_control_design', 1994, #56 ) ;
#115 = COORDINATED_UNIVERSAL_TIME_OFFSET ( 5, 0, .BEHIND. ) ;
#116 = APPROVAL_ROLE ( '' ) ;
#117 = APPROVAL_DATE_TIME ( #175, #87 ) ;
#118 = ORIENTED_EDGE ( 'NONE', *, *, #57, .F. ) ;
#119 = EDGE_CURVE ( 'NONE', #103, #45, #156, .T. ) ;
#120 = DIRECTION ( 'NONE',  ( 0.0000000000000000000, 0.0000000000000000000, 1.000000000000000000 ) ) ;
#121 = CC_DESIGN_PERSON_AND_ORGANIZATION_ASSIGNMENT ( #130, #44, ( #29 ) ) ;
#122 = DIRECTION ( 'NONE',  ( 0.0000000000000000000, 0.0000000000000000000, 1.000000000000000000 ) ) ;
#123 = VERTEX_POINT ( 'NONE', #147 ) ;
#124 =( NAMED_UNIT ( * ) PLANE_ANGLE_UNIT ( ) SI_UNIT ( $, .RADIAN. ) );
#125 = CC_DESIGN_SECURITY_CLASSIFICATION ( #47, ( #174 ) ) ;
#126 = COORDINATED_UNIVERSAL_TIME_OFFSET ( 5, 0, .BEHIND. ) ;
#127 = CIRCLE ( 'NONE', #135, 10.00000000000000000 ) ;
#128 = EDGE_LOOP ( 'NONE', ( #143, #157 ) ) ;
#129 = AXIS2_PLACEMENT_3D ( 'NONE', #167, #20, #75 ) ;
#130 = PERSON_AND_ORGANIZATION ( #137, #64 ) ;
#131 = MECHANICAL_CONTEXT ( 'NONE', #56, 'mechanical' ) ;
#132 = CC_DESIGN_APPROVAL ( #11, ( #174 ) ) ;
#133 = EDGE_CURVE ( 'NONE', #45, #103, #155, .T. ) ;
#134 = DIRECTION ( 'NONE',  ( -0.0000000000000000000, -0.0000000000000000000, -1.000000000000000000 ) ) ;
#135 = AXIS2_PLACEMENT_3D ( 'NONE', #62, #34, #101 ) ;
#136 =( LENGTH_UNIT ( ) NAMED_UNIT ( * ) SI_UNIT ( .MILLI., .METRE. ) );
#137 = PERSON ( 'UNSPECIFIED', 'UNSPECIFIED', 'UNSPECIFIED', ('UNSPECIFIED'), ('UNSPECIFIED'), ('UNSPECIFIED') ) ;
#138 = UNCERTAINTY_MEASURE_WITH_UNIT (LENGTH_MEASURE( 1.000000000000000100E-005 ), #136, 'distance_accuracy_value', 'NONE');
#139 = ORIENTED_EDGE ( 'NONE', *, *, #90, .T. ) ;
#140 = ADVANCED_BREP_SHAPE_REPRESENTATION ( 'Web Model 45464_45811', ( #71, #81 ), #52 ) ;
#141 = AXIS2_PLACEMENT_3D ( 'NONE', #49, #22, #38 ) ;
#142 = LOCAL_TIME ( 10, 37, 37.00000000000000000, #126 ) ;
#143 = ORIENTED_EDGE ( 'NONE', *, *, #133, .F. ) ;
#144 = CALENDAR_DATE ( 2019, 7, 1 ) ;
#145 = CARTESIAN_POINT ( 'NONE',  ( 0.0000000000000000000, 0.0000000000000000000, 0.0000000000000000000 ) ) ;
#146 = APPROVAL ( #169, 'UNSPECIFIED' ) ;
#147 = CARTESIAN_POINT ( 'NONE',  ( -10.00000000000000000, 0.0000000000000000000, 1.000000000000000000 ) ) ;
#148 = SECURITY_CLASSIFICATION_LEVEL ( 'unclassified' ) ;
#149 = DIRECTION ( 'NONE',  ( 1.000000000000000000, 0.0000000000000000000, -0.0000000000000000000 ) ) ;
#150 = CIRCLE ( 'NONE', #129, 10.00000000000000000 ) ;
#151 = CARTESIAN_POINT ( 'NONE',  ( -10.00000000000000000, 0.0000000000000000000, -1.000000000000000000 ) ) ;
#152 = PERSON_AND_ORGANIZATION_ROLE ( 'classification_officer' ) ;
#153 = CC_DESIGN_APPROVAL ( #146, ( #47 ) ) ;
#154 = PERSON_AND_ORGANIZATION ( #137, #64 ) ;
#155 = CIRCLE ( 'NONE', #2, 10.00000000000000000 ) ;
#156 = CIRCLE ( 'NONE', #141, 10.00000000000000000 ) ;
#157 = ORIENTED_EDGE ( 'NONE', *, *, #119, .F. ) ;
#158 = EDGE_CURVE ( 'NONE', #74, #103, #161, .T. ) ;
#159 = SHAPE_DEFINITION_REPRESENTATION ( #27, #140 ) ;
#160 = CC_DESIGN_PERSON_AND_ORGANIZATION_ASSIGNMENT ( #61, #152, ( #47 ) ) ;
#161 = LINE ( 'NONE', #163, #54 ) ;
#162 = ORIENTED_EDGE ( 'NONE', *, *, #36, .F. ) ;
#163 = CARTESIAN_POINT ( 'NONE',  ( 10.00000000000000000, 1.224646799147353300E-015, 1.000000000000000000 ) ) ;
#164 = APPROVAL_PERSON_ORGANIZATION ( #102, #11, #116 ) ;
#165 = PRODUCT_RELATED_PRODUCT_CATEGORY ( 'detail', '', ( #25 ) ) ;
#166 = ADVANCED_FACE ( 'NONE', ( #65 ), #59, .F. ) ;
#167 = CARTESIAN_POINT ( 'NONE',  ( 0.0000000000000000000, 0.0000000000000000000, 1.000000000000000000 ) ) ;
#168 = CARTESIAN_POINT ( 'NONE',  ( 10.00000000000000000, 1.224646799147353300E-015, 1.000000000000000000 ) ) ;
#169 = APPROVAL_STATUS ( 'not_yet_approved' ) ;
#170 = DIRECTION ( 'NONE',  ( 1.000000000000000000, 0.0000000000000000000, -0.0000000000000000000 ) ) ;
#171 = CYLINDRICAL_SURFACE ( 'NONE', #111, 10.00000000000000000 ) ;
#172 = FACE_OUTER_BOUND ( 'NONE', #1, .T. ) ;
#173 =( NAMED_UNIT ( * ) SI_UNIT ( $, .STERADIAN. ) SOLID_ANGLE_UNIT ( ) );
#174 = PRODUCT_DEFINITION_FORMATION_WITH_SPECIFIED_SOURCE ( 'ANY', '', #25, .NOT_KNOWN. ) ;
#175 = DATE_AND_TIME ( #23, #58 ) ;
ENDSEC;
END-ISO-10303-21;
