ISO-10303-21;
HEADER;
FILE_DESCRIPTION (( 'STEP AP203' ),
    '1' );
FILE_NAME ('Web Model 45076_13297.step',
    '2020-11-03T21:50:41',
    ( '' ),
    ( '' ),
    'SwSTEP 2.0',
    'SolidWorks 2018',
    '' );
FILE_SCHEMA (( 'CONFIG_CONTROL_DESIGN' ));
ENDSEC;

DATA;
#1 = ORIENTED_EDGE ( 'NONE', *, *, #30, .F. ) ;
#2 = CARTESIAN_POINT ( 'NONE',  ( 0.0000000000000000000, 0.0000000000000000000, -4.000000000000000000 ) ) ;
#3 = CARTESIAN_POINT ( 'NONE',  ( 0.0000000000000000000, 0.0000000000000000000, 0.0000000000000000000 ) ) ;
#4 = MANIFOLD_SOLID_BREP ( 'Extrude1', #78 ) ;
#5 = DIRECTION ( 'NONE',  ( 0.0000000000000000000, 0.0000000000000000000, 1.000000000000000000 ) ) ;
#6 = APPROVAL_STATUS ( 'not_yet_approved' ) ;
#7 = ADVANCED_FACE ( 'NONE', ( #120 ), #135, .T. ) ;
#8 = ORIENTED_EDGE ( 'NONE', *, *, #164, .T. ) ;
#9 = COORDINATED_UNIVERSAL_TIME_OFFSET ( 5, 0, .BEHIND. ) ;
#10 = APPROVAL ( #34, 'UNSPECIFIED' ) ;
#11 = EDGE_CURVE ( 'NONE', #127, #13, #169, .T. ) ;
#12 = PERSON_AND_ORGANIZATION ( #24, #144 ) ;
#13 = VERTEX_POINT ( 'NONE', #173 ) ;
#14 = APPLICATION_CONTEXT ( 'configuration controlled 3d designs of mechanical parts and assemblies' ) ;
#15 = DIRECTION ( 'NONE',  ( 0.0000000000000000000, 0.0000000000000000000, 1.000000000000000000 ) ) ;
#16 = CC_DESIGN_DATE_AND_TIME_ASSIGNMENT ( #99, #43, ( #123 ) ) ;
#17 = CALENDAR_DATE ( 2020, 3, 11 ) ;
#18 =( NAMED_UNIT ( * ) PLANE_ANGLE_UNIT ( ) SI_UNIT ( $, .RADIAN. ) );
#19 = APPROVAL_DATE_TIME ( #53, #10 ) ;
#20 =( NAMED_UNIT ( * ) SI_UNIT ( $, .STERADIAN. ) SOLID_ANGLE_UNIT ( ) );
#21 = EDGE_CURVE ( 'NONE', #13, #81, #66, .T. ) ;
#22 = AXIS2_PLACEMENT_3D ( 'NONE', #160, #65, #172 ) ;
#23 = CC_DESIGN_SECURITY_CLASSIFICATION ( #123, ( #90 ) ) ;
#24 = PERSON ( 'UNSPECIFIED', 'UNSPECIFIED', 'UNSPECIFIED', ('UNSPECIFIED'), ('UNSPECIFIED'), ('UNSPECIFIED') ) ;
#25 = LOCAL_TIME ( 16, 50, 41.00000000000000000, #167 ) ;
#26 = ORIENTED_EDGE ( 'NONE', *, *, #21, .F. ) ;
#27 = CARTESIAN_POINT ( 'NONE',  ( 12.50000000000000000, 0.0000000000000000000, -4.000000000000000000 ) ) ;
#28 = CC_DESIGN_PERSON_AND_ORGANIZATION_ASSIGNMENT ( #122, #98, ( #123 ) ) ;
#29 = DATE_AND_TIME ( #101, #59 ) ;
#30 = EDGE_CURVE ( 'NONE', #37, #81, #72, .T. ) ;
#31 =( GEOMETRIC_REPRESENTATION_CONTEXT ( 3 ) GLOBAL_UNCERTAINTY_ASSIGNED_CONTEXT ( ( #153 ) ) GLOBAL_UNIT_ASSIGNED_CONTEXT ( ( #45, #18, #20 ) ) REPRESENTATION_CONTEXT ( 'NONE', 'WORKASPACE' ) );
#32 = DIRECTION ( 'NONE',  ( 1.000000000000000000, 0.0000000000000000000, 0.0000000000000000000 ) ) ;
#33 = PERSON_AND_ORGANIZATION_ROLE ( 'creator' ) ;
#34 = APPROVAL_STATUS ( 'not_yet_approved' ) ;
#35 = VECTOR ( 'NONE', #94, 1000.000000000000000 ) ;
#36 = EDGE_CURVE ( 'NONE', #127, #37, #121, .T. ) ;
#37 = VERTEX_POINT ( 'NONE', #27 ) ;
#38 = DATE_AND_TIME ( #125, #156 ) ;
#39 = CARTESIAN_POINT ( 'NONE',  ( 0.0000000000000000000, 0.0000000000000000000, 0.0000000000000000000 ) ) ;
#40 = APPROVAL_PERSON_ORGANIZATION ( #114, #10, #47 ) ;
#41 = DIRECTION ( 'NONE',  ( 1.000000000000000000, 0.0000000000000000000, 0.0000000000000000000 ) ) ;
#42 = ORIENTED_EDGE ( 'NONE', *, *, #164, .F. ) ;
#43 = DATE_TIME_ROLE ( 'classification_date' ) ;
#44 = APPROVAL ( #131, 'UNSPECIFIED' ) ;
#45 =( LENGTH_UNIT ( ) NAMED_UNIT ( * ) SI_UNIT ( .MILLI., .METRE. ) );
#46 = DIRECTION ( 'NONE',  ( 0.0000000000000000000, 0.0000000000000000000, 1.000000000000000000 ) ) ;
#47 = APPROVAL_ROLE ( '' ) ;
#48 = AXIS2_PLACEMENT_3D ( 'NONE', #170, #151, #68 ) ;
#49 = ORIENTED_EDGE ( 'NONE', *, *, #21, .T. ) ;
#50 = PRODUCT_DEFINITION ( 'UNKNOWN', '', #90, #62 ) ;
#51 = CARTESIAN_POINT ( 'NONE',  ( 0.0000000000000000000, 0.0000000000000000000, 0.0000000000000000000 ) ) ;
#52 = PRODUCT_RELATED_PRODUCT_CATEGORY ( 'detail', '', ( #89 ) ) ;
#53 = DATE_AND_TIME ( #91, #25 ) ;
#54 = AXIS2_PLACEMENT_3D ( 'NONE', #51, #138, #106 ) ;
#55 = SECURITY_CLASSIFICATION_LEVEL ( 'unclassified' ) ;
#56 = CC_DESIGN_APPROVAL ( #83, ( #50 ) ) ;
#57 = APPROVAL_ROLE ( '' ) ;
#58 = PLANE ( 'NONE',  #165 ) ;
#59 = LOCAL_TIME ( 16, 50, 41.00000000000000000, #132 ) ;
#60 = PERSON_AND_ORGANIZATION_ROLE ( 'design_supplier' ) ;
#61 = EDGE_LOOP ( 'NONE', ( #108, #112, #84, #26 ) ) ;
#62 = DESIGN_CONTEXT ( 'detailed design', #166, 'design' ) ;
#63 = AXIS2_PLACEMENT_3D ( 'NONE', #76, #134, #32 ) ;
#64 = DATE_AND_TIME ( #140, #73 ) ;
#65 = DIRECTION ( 'NONE',  ( 0.0000000000000000000, 0.0000000000000000000, 1.000000000000000000 ) ) ;
#66 = CIRCLE ( 'NONE', #54, 12.50000000000000000 ) ;
#67 = CC_DESIGN_PERSON_AND_ORGANIZATION_ASSIGNMENT ( #69, #157, ( #50 ) ) ;
#68 = DIRECTION ( 'NONE',  ( 1.000000000000000000, 0.0000000000000000000, 0.0000000000000000000 ) ) ;
#69 = PERSON_AND_ORGANIZATION ( #24, #144 ) ;
#70 = DIRECTION ( 'NONE',  ( 1.000000000000000000, 0.0000000000000000000, 0.0000000000000000000 ) ) ;
#71 = CYLINDRICAL_SURFACE ( 'NONE', #63, 12.50000000000000000 ) ;
#72 = LINE ( 'NONE', #92, #35 ) ;
#73 = LOCAL_TIME ( 16, 50, 41.00000000000000000, #175 ) ;
#74 = MECHANICAL_CONTEXT ( 'NONE', #14, 'mechanical' ) ;
#75 = AXIS2_PLACEMENT_3D ( 'NONE', #3, #15, #70 ) ;
#76 = CARTESIAN_POINT ( 'NONE',  ( 0.0000000000000000000, 0.0000000000000000000, -4.000000000000000000 ) ) ;
#77 = EDGE_CURVE ( 'NONE', #37, #127, #110, .T. ) ;
#78 = CLOSED_SHELL ( 'NONE', ( #117, #7, #146, #103 ) ) ;
#79 = CC_DESIGN_DATE_AND_TIME_ASSIGNMENT ( #64, #128, ( #50 ) ) ;
#80 = DIRECTION ( 'NONE',  ( 0.0000000000000000000, 0.0000000000000000000, 1.000000000000000000 ) ) ;
#81 = VERTEX_POINT ( 'NONE', #148 ) ;
#82 = DIRECTION ( 'NONE',  ( 0.0000000000000000000, 0.0000000000000000000, 1.000000000000000000 ) ) ;
#83 = APPROVAL ( #6, 'UNSPECIFIED' ) ;
#84 = ORIENTED_EDGE ( 'NONE', *, *, #30, .T. ) ;
#85 = CC_DESIGN_APPROVAL ( #10, ( #90 ) ) ;
#86 = DIRECTION ( 'NONE',  ( 1.000000000000000000, 0.0000000000000000000, -0.0000000000000000000 ) ) ;
#87 = DIRECTION ( 'NONE',  ( 0.0000000000000000000, 0.0000000000000000000, 1.000000000000000000 ) ) ;
#88 = ORIENTED_EDGE ( 'NONE', *, *, #77, .F. ) ;
#89 = PRODUCT ( 'Web Model 45076_13297', 'Web Model 45076_13297', '', ( #74 ) ) ;
#90 = PRODUCT_DEFINITION_FORMATION_WITH_SPECIFIED_SOURCE ( 'ANY', '', #89, .NOT_KNOWN. ) ;
#91 = CALENDAR_DATE ( 2020, 3, 11 ) ;
#92 = CARTESIAN_POINT ( 'NONE',  ( 12.50000000000000000, 0.0000000000000000000, -4.000000000000000000 ) ) ;
#93 = EDGE_LOOP ( 'NONE', ( #88, #137 ) ) ;
#94 = DIRECTION ( 'NONE',  ( 0.0000000000000000000, 0.0000000000000000000, 1.000000000000000000 ) ) ;
#95 = CC_DESIGN_APPROVAL ( #44, ( #123 ) ) ;
#96 = PERSON_AND_ORGANIZATION ( #24, #144 ) ;
#97 = ORIENTED_EDGE ( 'NONE', *, *, #77, .T. ) ;
#98 = PERSON_AND_ORGANIZATION_ROLE ( 'classification_officer' ) ;
#99 = DATE_AND_TIME ( #17, #152 ) ;
#100 = DIRECTION ( 'NONE',  ( 1.000000000000000000, 0.0000000000000000000, -0.0000000000000000000 ) ) ;
#101 = CALENDAR_DATE ( 2020, 3, 11 ) ;
#102 = CC_DESIGN_PERSON_AND_ORGANIZATION_ASSIGNMENT ( #155, #60, ( #90 ) ) ;
#103 = ADVANCED_FACE ( 'NONE', ( #174 ), #139, .T. ) ;
#104 = FACE_OUTER_BOUND ( 'NONE', #93, .T. ) ;
#105 = PERSON_AND_ORGANIZATION ( #24, #144 ) ;
#106 = DIRECTION ( 'NONE',  ( 1.000000000000000000, 0.0000000000000000000, 0.0000000000000000000 ) ) ;
#107 = CARTESIAN_POINT ( 'NONE',  ( 0.0000000000000000000, 0.0000000000000000000, -4.000000000000000000 ) ) ;
#108 = ORIENTED_EDGE ( 'NONE', *, *, #11, .F. ) ;
#109 = APPROVAL_PERSON_ORGANIZATION ( #154, #44, #57 ) ;
#110 = CIRCLE ( 'NONE', #142, 12.50000000000000000 ) ;
#111 = CC_DESIGN_PERSON_AND_ORGANIZATION_ASSIGNMENT ( #12, #33, ( #90 ) ) ;
#112 = ORIENTED_EDGE ( 'NONE', *, *, #36, .T. ) ;
#113 = AXIS2_PLACEMENT_3D ( 'NONE', #39, #5, #100 ) ;
#114 = PERSON_AND_ORGANIZATION ( #24, #144 ) ;
#115 = APPLICATION_PROTOCOL_DEFINITION ( 'international standard', 'config_control_design', 1994, #166 ) ;
#116 = DIRECTION ( 'NONE',  ( 1.000000000000000000, 0.0000000000000000000, 0.0000000000000000000 ) ) ;
#117 = ADVANCED_FACE ( 'NONE', ( #143 ), #71, .T. ) ;
#118 = PERSON_AND_ORGANIZATION_ROLE ( 'design_owner' ) ;
#119 = APPROVAL_ROLE ( '' ) ;
#120 = FACE_OUTER_BOUND ( 'NONE', #61, .T. ) ;
#121 = CIRCLE ( 'NONE', #48, 12.50000000000000000 ) ;
#122 = PERSON_AND_ORGANIZATION ( #24, #144 ) ;
#123 = SECURITY_CLASSIFICATION ( '', '', #55 ) ;
#124 = ADVANCED_BREP_SHAPE_REPRESENTATION ( 'Web Model 45076_13297', ( #4, #75 ), #31 ) ;
#125 = CALENDAR_DATE ( 2020, 3, 11 ) ;
#126 = AXIS2_PLACEMENT_3D ( 'NONE', #145, #87, #116 ) ;
#127 = VERTEX_POINT ( 'NONE', #133 ) ;
#128 = DATE_TIME_ROLE ( 'creation_date' ) ;
#129 = SHAPE_DEFINITION_REPRESENTATION ( #162, #124 ) ;
#130 = CIRCLE ( 'NONE', #126, 12.50000000000000000 ) ;
#131 = APPROVAL_STATUS ( 'not_yet_approved' ) ;
#132 = COORDINATED_UNIVERSAL_TIME_OFFSET ( 5, 0, .BEHIND. ) ;
#133 = CARTESIAN_POINT ( 'NONE',  ( -12.50000000000000000, 1.530808498934191521E-15, -4.000000000000000000 ) ) ;
#134 = DIRECTION ( 'NONE',  ( 0.0000000000000000000, 0.0000000000000000000, 1.000000000000000000 ) ) ;
#135 = CYLINDRICAL_SURFACE ( 'NONE', #22, 12.50000000000000000 ) ;
#136 = APPROVAL_PERSON_ORGANIZATION ( #96, #83, #119 ) ;
#137 = ORIENTED_EDGE ( 'NONE', *, *, #36, .F. ) ;
#138 = DIRECTION ( 'NONE',  ( 0.0000000000000000000, 0.0000000000000000000, 1.000000000000000000 ) ) ;
#139 = PLANE ( 'NONE',  #113 ) ;
#140 = CALENDAR_DATE ( 2020, 3, 11 ) ;
#141 = COORDINATED_UNIVERSAL_TIME_OFFSET ( 5, 0, .BEHIND. ) ;
#142 = AXIS2_PLACEMENT_3D ( 'NONE', #107, #82, #41 ) ;
#143 = FACE_OUTER_BOUND ( 'NONE', #150, .T. ) ;
#144 = ORGANIZATION ( 'UNSPECIFIED', 'UNSPECIFIED', '' ) ;
#145 = CARTESIAN_POINT ( 'NONE',  ( 0.0000000000000000000, 0.0000000000000000000, 0.0000000000000000000 ) ) ;
#146 = ADVANCED_FACE ( 'NONE', ( #104 ), #58, .F. ) ;
#147 = EDGE_LOOP ( 'NONE', ( #8, #49 ) ) ;
#148 = CARTESIAN_POINT ( 'NONE',  ( 12.50000000000000000, 0.0000000000000000000, 0.0000000000000000000 ) ) ;
#149 = CARTESIAN_POINT ( 'NONE',  ( -12.50000000000000000, 1.530808498934191521E-15, -4.000000000000000000 ) ) ;
#150 = EDGE_LOOP ( 'NONE', ( #97, #161, #42, #1 ) ) ;
#151 = DIRECTION ( 'NONE',  ( 0.0000000000000000000, 0.0000000000000000000, 1.000000000000000000 ) ) ;
#152 = LOCAL_TIME ( 16, 50, 41.00000000000000000, #9 ) ;
#153 = UNCERTAINTY_MEASURE_WITH_UNIT (LENGTH_MEASURE( 1.000000000000000082E-05 ), #45, 'distance_accuracy_value', 'NONE');
#154 = PERSON_AND_ORGANIZATION ( #24, #144 ) ;
#155 = PERSON_AND_ORGANIZATION ( #24, #144 ) ;
#156 = LOCAL_TIME ( 16, 50, 41.00000000000000000, #141 ) ;
#157 = PERSON_AND_ORGANIZATION_ROLE ( 'creator' ) ;
#158 = APPROVAL_DATE_TIME ( #38, #44 ) ;
#159 = CC_DESIGN_PERSON_AND_ORGANIZATION_ASSIGNMENT ( #105, #118, ( #89 ) ) ;
#160 = CARTESIAN_POINT ( 'NONE',  ( 0.0000000000000000000, 0.0000000000000000000, -4.000000000000000000 ) ) ;
#161 = ORIENTED_EDGE ( 'NONE', *, *, #11, .T. ) ;
#162 = PRODUCT_DEFINITION_SHAPE ( 'NONE', 'NONE',  #50 ) ;
#163 = VECTOR ( 'NONE', #80, 1000.000000000000000 ) ;
#164 = EDGE_CURVE ( 'NONE', #81, #13, #130, .T. ) ;
#165 = AXIS2_PLACEMENT_3D ( 'NONE', #2, #46, #86 ) ;
#166 = APPLICATION_CONTEXT ( 'configuration controlled 3d designs of mechanical parts and assemblies' ) ;
#167 = COORDINATED_UNIVERSAL_TIME_OFFSET ( 5, 0, .BEHIND. ) ;
#168 = APPLICATION_PROTOCOL_DEFINITION ( 'international standard', 'config_control_design', 1994, #14 ) ;
#169 = LINE ( 'NONE', #149, #163 ) ;
#170 = CARTESIAN_POINT ( 'NONE',  ( 0.0000000000000000000, 0.0000000000000000000, -4.000000000000000000 ) ) ;
#171 = APPROVAL_DATE_TIME ( #29, #83 ) ;
#172 = DIRECTION ( 'NONE',  ( 1.000000000000000000, 0.0000000000000000000, 0.0000000000000000000 ) ) ;
#173 = CARTESIAN_POINT ( 'NONE',  ( -12.50000000000000000, 1.530808498934191521E-15, 0.0000000000000000000 ) ) ;
#174 = FACE_OUTER_BOUND ( 'NONE', #147, .T. ) ;
#175 = COORDINATED_UNIVERSAL_TIME_OFFSET ( 5, 0, .BEHIND. ) ;
ENDSEC;
END-ISO-10303-21;
