ISO-10303-21;
HEADER;
FILE_DESCRIPTION (( 'STEP AP203' ),
    '1' );
FILE_NAME ('Web Model 22236_22239.step',
    '2022-06-22T15:37:21',
    ( '' ),
    ( '' ),
    'SwSTEP 2.0',
    'SolidWorks 2021',
    '' );
FILE_SCHEMA (( 'CONFIG_CONTROL_DESIGN' ));
ENDSEC;

DATA;
#1 = CALENDAR_DATE ( 2022, 22, 6 ) ;
#2 = CIRCLE ( 'NONE', #118, 25.00000000000000000 ) ;
#3 = ORIENTED_EDGE ( 'NONE', *, *, #44, .F. ) ;
#4 = DESIGN_CONTEXT ( 'detailed design', #143, 'design' ) ;
#5 = ORIENTED_EDGE ( 'NONE', *, *, #26, .T. ) ;
#6 = ORIENTED_EDGE ( 'NONE', *, *, #82, .T. ) ;
#7 = CIRCLE ( 'NONE', #108, 25.00000000000000000 ) ;
#8 = EDGE_LOOP ( 'NONE', ( #9, #6, #60, #57 ) ) ;
#9 = ORIENTED_EDGE ( 'NONE', *, *, #26, .F. ) ;
#10 = APPROVAL_DATE_TIME ( #133, #68 ) ;
#11 = DIRECTION ( 'NONE',  ( 1.000000000000000000, 0.000000000000000000, -0.000000000000000000 ) ) ;
#12 = ADVANCED_FACE ( 'NONE', ( #121 ), #48, .T. ) ;
#13 = AXIS2_PLACEMENT_3D ( 'NONE', #47, #158, #11 ) ;
#14 = APPROVAL_STATUS ( 'not_yet_approved' ) ;
#15 = EDGE_CURVE ( 'NONE', #156, #40, #169, .T. ) ;
#16 =( NAMED_UNIT ( * ) SI_UNIT ( $, .STERADIAN. ) SOLID_ANGLE_UNIT ( ) );
#17 = DATE_TIME_ROLE ( 'classification_date' ) ;
#18 = LINE ( 'NONE', #79, #28 ) ;
#19 = AXIS2_PLACEMENT_3D ( 'NONE', #106, #76, #91 ) ;
#20 = CARTESIAN_POINT ( 'NONE',  ( 0.000000000000000000, 0.000000000000000000, 0.000000000000000000 ) ) ;
#21 = CARTESIAN_POINT ( 'NONE',  ( 0.000000000000000000, 0.000000000000000000, 0.2099999999999999922 ) ) ;
#22 = COORDINATED_UNIVERSAL_TIME_OFFSET ( 5, 0, .BEHIND. ) ;
#23 = DIRECTION ( 'NONE',  ( 0.000000000000000000, 0.000000000000000000, 1.000000000000000000 ) ) ;
#24 = PERSON_AND_ORGANIZATION_ROLE ( 'classification_officer' ) ;
#25 = ORGANIZATION ( 'UNSPECIFIED', 'UNSPECIFIED', '' ) ;
#26 = EDGE_CURVE ( 'NONE', #92, #156, #155, .T. ) ;
#27 = APPROVAL_ROLE ( '' ) ;
#28 = VECTOR ( 'NONE', #131, 1000.000000000000000 ) ;
#29 = CC_DESIGN_DATE_AND_TIME_ASSIGNMENT ( #73, #17, ( #150 ) ) ;
#30 = DATE_AND_TIME ( #1, #62 ) ;
#31 = CALENDAR_DATE ( 2022, 22, 6 ) ;
#32 = APPROVAL_PERSON_ORGANIZATION ( #88, #124, #55 ) ;
#33 = EDGE_CURVE ( 'NONE', #156, #92, #36, .T. ) ;
#34 = APPLICATION_PROTOCOL_DEFINITION ( 'international standard', 'config_control_design', 1994, #107 ) ;
#35 = CC_DESIGN_SECURITY_CLASSIFICATION ( #150, ( #163 ) ) ;
#36 = CIRCLE ( 'NONE', #96, 25.00000000000000000 ) ;
#37 = CARTESIAN_POINT ( 'NONE',  ( -25.00000000000000000, 0.000000000000000000, 0.000000000000000000 ) ) ;
#38 = PRODUCT_RELATED_PRODUCT_CATEGORY ( 'detail', '', ( #137 ) ) ;
#39 = CARTESIAN_POINT ( 'NONE',  ( 25.00000000000000000, 3.061616997868383043E-15, 0.2099999999999999922 ) ) ;
#40 = VERTEX_POINT ( 'NONE', #37 ) ;
#41 = EDGE_LOOP ( 'NONE', ( #119, #5 ) ) ;
#42 = PERSON_AND_ORGANIZATION_ROLE ( 'design_supplier' ) ;
#43 = APPROVAL_PERSON_ORGANIZATION ( #67, #68, #27 ) ;
#44 = EDGE_CURVE ( 'NONE', #40, #61, #7, .T. ) ;
#45 = PERSON_AND_ORGANIZATION ( #164, #25 ) ;
#46 = SHAPE_DEFINITION_REPRESENTATION ( #86, #58 ) ;
#47 = CARTESIAN_POINT ( 'NONE',  ( 0.000000000000000000, 0.000000000000000000, 0.000000000000000000 ) ) ;
#48 = CYLINDRICAL_SURFACE ( 'NONE', #83, 25.00000000000000000 ) ;
#49 = PRODUCT_DEFINITION ( 'UNKNOWN', '', #163, #4 ) ;
#50 = DIRECTION ( 'NONE',  ( -0.000000000000000000, -0.000000000000000000, -1.000000000000000000 ) ) ;
#51 = FACE_OUTER_BOUND ( 'NONE', #41, .T. ) ;
#52 = CALENDAR_DATE ( 2022, 22, 6 ) ;
#53 = CC_DESIGN_APPROVAL ( #54, ( #163 ) ) ;
#54 = APPROVAL ( #71, 'UNSPECIFIED' ) ;
#55 = APPROVAL_ROLE ( '' ) ;
#56 = CC_DESIGN_PERSON_AND_ORGANIZATION_ASSIGNMENT ( #111, #42, ( #163 ) ) ;
#57 = ORIENTED_EDGE ( 'NONE', *, *, #15, .F. ) ;
#58 = ADVANCED_BREP_SHAPE_REPRESENTATION ( 'Web Model 22236_22239', ( #72, #112 ), #132 ) ;
#59 = CALENDAR_DATE ( 2022, 22, 6 ) ;
#60 = ORIENTED_EDGE ( 'NONE', *, *, #89, .T. ) ;
#61 = VERTEX_POINT ( 'NONE', #65 ) ;
#62 = LOCAL_TIME ( 11, 37, 21.00000000000000000, #116 ) ;
#63 = ADVANCED_FACE ( 'NONE', ( #146 ), #130, .F. ) ;
#64 = EDGE_LOOP ( 'NONE', ( #3, #140 ) ) ;
#65 = CARTESIAN_POINT ( 'NONE',  ( 25.00000000000000000, 3.061616997868383043E-15, 0.000000000000000000 ) ) ;
#66 = PLANE ( 'NONE',  #98 ) ;
#67 = PERSON_AND_ORGANIZATION ( #164, #25 ) ;
#68 = APPROVAL ( #129, 'UNSPECIFIED' ) ;
#69 = DIRECTION ( 'NONE',  ( 1.000000000000000000, 0.000000000000000000, 0.000000000000000000 ) ) ;
#70 = DATE_TIME_ROLE ( 'creation_date' ) ;
#71 = APPROVAL_STATUS ( 'not_yet_approved' ) ;
#72 = MANIFOLD_SOLID_BREP ( 'Boss-Extrude1', #103 ) ;
#73 = DATE_AND_TIME ( #162, #95 ) ;
#74 = ADVANCED_FACE ( 'NONE', ( #51 ), #66, .T. ) ;
#75 = DIRECTION ( 'NONE',  ( 1.000000000000000000, 0.000000000000000000, 0.000000000000000000 ) ) ;
#76 = DIRECTION ( 'NONE',  ( 0.000000000000000000, 0.000000000000000000, 1.000000000000000000 ) ) ;
#77 = DIRECTION ( 'NONE',  ( 1.000000000000000000, 0.000000000000000000, 0.000000000000000000 ) ) ;
#78 = PERSON_AND_ORGANIZATION ( #164, #25 ) ;
#79 = CARTESIAN_POINT ( 'NONE',  ( 25.00000000000000000, 3.061616997868383043E-15, 0.2099999999999999922 ) ) ;
#80 = AXIS2_PLACEMENT_3D ( 'NONE', #99, #101, #151 ) ;
#81 = COORDINATED_UNIVERSAL_TIME_OFFSET ( 5, 0, .BEHIND. ) ;
#82 = EDGE_CURVE ( 'NONE', #92, #61, #18, .T. ) ;
#83 = AXIS2_PLACEMENT_3D ( 'NONE', #161, #128, #90 ) ;
#84 = PERSON_AND_ORGANIZATION_ROLE ( 'creator' ) ;
#85 = LOCAL_TIME ( 11, 37, 21.00000000000000000, #154 ) ;
#86 = PRODUCT_DEFINITION_SHAPE ( 'NONE', 'NONE',  #49 ) ;
#87 = APPROVAL_ROLE ( '' ) ;
#88 = PERSON_AND_ORGANIZATION ( #164, #25 ) ;
#89 = EDGE_CURVE ( 'NONE', #61, #40, #2, .T. ) ;
#90 = DIRECTION ( 'NONE',  ( -1.000000000000000000, 0.000000000000000000, 0.000000000000000000 ) ) ;
#91 = DIRECTION ( 'NONE',  ( 1.000000000000000000, 0.000000000000000000, 0.000000000000000000 ) ) ;
#92 = VERTEX_POINT ( 'NONE', #39 ) ;
#93 = DIRECTION ( 'NONE',  ( 0.000000000000000000, 0.000000000000000000, 1.000000000000000000 ) ) ;
#94 = PERSON_AND_ORGANIZATION ( #164, #25 ) ;
#95 = LOCAL_TIME ( 11, 37, 21.00000000000000000, #81 ) ;
#96 = AXIS2_PLACEMENT_3D ( 'NONE', #21, #93, #170 ) ;
#97 = CC_DESIGN_PERSON_AND_ORGANIZATION_ASSIGNMENT ( #166, #84, ( #49 ) ) ;
#98 = AXIS2_PLACEMENT_3D ( 'NONE', #109, #23, #141 ) ;
#99 = CARTESIAN_POINT ( 'NONE',  ( 0.000000000000000000, 0.000000000000000000, 0.2099999999999999922 ) ) ;
#100 = CC_DESIGN_APPROVAL ( #68, ( #150 ) ) ;
#101 = DIRECTION ( 'NONE',  ( -0.000000000000000000, -0.000000000000000000, -1.000000000000000000 ) ) ;
#102 = DATE_AND_TIME ( #31, #147 ) ;
#103 = CLOSED_SHELL ( 'NONE', ( #157, #12, #74, #63 ) ) ;
#104 = DIRECTION ( 'NONE',  ( 0.000000000000000000, 0.000000000000000000, 1.000000000000000000 ) ) ;
#105 = CARTESIAN_POINT ( 'NONE',  ( -25.00000000000000000, 0.000000000000000000, 0.2099999999999999922 ) ) ;
#106 = CARTESIAN_POINT ( 'NONE',  ( 0.000000000000000000, 0.000000000000000000, 0.2099999999999999922 ) ) ;
#107 = APPLICATION_CONTEXT ( 'configuration controlled 3d designs of mechanical parts and assemblies' ) ;
#108 = AXIS2_PLACEMENT_3D ( 'NONE', #20, #159, #77 ) ;
#109 = CARTESIAN_POINT ( 'NONE',  ( 0.000000000000000000, 0.000000000000000000, 0.2099999999999999922 ) ) ;
#110 = APPROVAL_DATE_TIME ( #172, #54 ) ;
#111 = PERSON_AND_ORGANIZATION ( #164, #25 ) ;
#112 = AXIS2_PLACEMENT_3D ( 'NONE', #113, #165, #69 ) ;
#113 = CARTESIAN_POINT ( 'NONE',  ( 0.000000000000000000, 0.000000000000000000, 0.000000000000000000 ) ) ;
#114 = APPROVAL_DATE_TIME ( #30, #124 ) ;
#115 = COORDINATED_UNIVERSAL_TIME_OFFSET ( 5, 0, .BEHIND. ) ;
#116 = COORDINATED_UNIVERSAL_TIME_OFFSET ( 5, 0, .BEHIND. ) ;
#117 = EDGE_LOOP ( 'NONE', ( #145, #175, #126, #167 ) ) ;
#118 = AXIS2_PLACEMENT_3D ( 'NONE', #120, #104, #75 ) ;
#119 = ORIENTED_EDGE ( 'NONE', *, *, #33, .T. ) ;
#120 = CARTESIAN_POINT ( 'NONE',  ( 0.000000000000000000, 0.000000000000000000, 0.000000000000000000 ) ) ;
#121 = FACE_OUTER_BOUND ( 'NONE', #117, .T. ) ;
#122 = MECHANICAL_CONTEXT ( 'NONE', #107, 'mechanical' ) ;
#123 = CC_DESIGN_APPROVAL ( #124, ( #49 ) ) ;
#124 = APPROVAL ( #14, 'UNSPECIFIED' ) ;
#125 = PERSON_AND_ORGANIZATION ( #164, #25 ) ;
#126 = ORIENTED_EDGE ( 'NONE', *, *, #15, .T. ) ;
#127 = APPROVAL_PERSON_ORGANIZATION ( #45, #54, #87 ) ;
#128 = DIRECTION ( 'NONE',  ( -0.000000000000000000, -0.000000000000000000, -1.000000000000000000 ) ) ;
#129 = APPROVAL_STATUS ( 'not_yet_approved' ) ;
#130 = PLANE ( 'NONE',  #13 ) ;
#131 = DIRECTION ( 'NONE',  ( -0.000000000000000000, -0.000000000000000000, -1.000000000000000000 ) ) ;
#132 =( GEOMETRIC_REPRESENTATION_CONTEXT ( 3 ) GLOBAL_UNCERTAINTY_ASSIGNED_CONTEXT ( ( #153 ) ) GLOBAL_UNIT_ASSIGNED_CONTEXT ( ( #152, #138, #16 ) ) REPRESENTATION_CONTEXT ( 'NONE', 'WORKASPACE' ) );
#133 = DATE_AND_TIME ( #59, #135 ) ;
#134 = APPLICATION_PROTOCOL_DEFINITION ( 'international standard', 'config_control_design', 1994, #143 ) ;
#135 = LOCAL_TIME ( 11, 37, 21.00000000000000000, #22 ) ;
#136 = CYLINDRICAL_SURFACE ( 'NONE', #80, 25.00000000000000000 ) ;
#137 = PRODUCT ( 'Web Model 22236_22239', 'Web Model 22236_22239', '', ( #122 ) ) ;
#138 =( NAMED_UNIT ( * ) PLANE_ANGLE_UNIT ( ) SI_UNIT ( $, .RADIAN. ) );
#139 = PERSON_AND_ORGANIZATION_ROLE ( 'creator' ) ;
#140 = ORIENTED_EDGE ( 'NONE', *, *, #89, .F. ) ;
#141 = DIRECTION ( 'NONE',  ( 1.000000000000000000, 0.000000000000000000, -0.000000000000000000 ) ) ;
#142 = CC_DESIGN_DATE_AND_TIME_ASSIGNMENT ( #102, #70, ( #49 ) ) ;
#143 = APPLICATION_CONTEXT ( 'configuration controlled 3d designs of mechanical parts and assemblies' ) ;
#144 = CARTESIAN_POINT ( 'NONE',  ( -25.00000000000000000, 0.000000000000000000, 0.2099999999999999922 ) ) ;
#145 = ORIENTED_EDGE ( 'NONE', *, *, #82, .F. ) ;
#146 = FACE_OUTER_BOUND ( 'NONE', #64, .T. ) ;
#147 = LOCAL_TIME ( 11, 37, 21.00000000000000000, #115 ) ;
#148 = PERSON_AND_ORGANIZATION_ROLE ( 'design_owner' ) ;
#149 = CC_DESIGN_PERSON_AND_ORGANIZATION_ASSIGNMENT ( #78, #139, ( #163 ) ) ;
#150 = SECURITY_CLASSIFICATION ( '', '', #160 ) ;
#151 = DIRECTION ( 'NONE',  ( -1.000000000000000000, 0.000000000000000000, 0.000000000000000000 ) ) ;
#152 =( LENGTH_UNIT ( ) NAMED_UNIT ( * ) SI_UNIT ( .MILLI., .METRE. ) );
#153 = UNCERTAINTY_MEASURE_WITH_UNIT (LENGTH_MEASURE( 1.000000000000000082E-05 ), #152, 'distance_accuracy_value', 'NONE');
#154 = COORDINATED_UNIVERSAL_TIME_OFFSET ( 5, 0, .BEHIND. ) ;
#155 = CIRCLE ( 'NONE', #19, 25.00000000000000000 ) ;
#156 = VERTEX_POINT ( 'NONE', #144 ) ;
#157 = ADVANCED_FACE ( 'NONE', ( #171 ), #136, .T. ) ;
#158 = DIRECTION ( 'NONE',  ( 0.000000000000000000, 0.000000000000000000, 1.000000000000000000 ) ) ;
#159 = DIRECTION ( 'NONE',  ( 0.000000000000000000, 0.000000000000000000, 1.000000000000000000 ) ) ;
#160 = SECURITY_CLASSIFICATION_LEVEL ( 'unclassified' ) ;
#161 = CARTESIAN_POINT ( 'NONE',  ( 0.000000000000000000, 0.000000000000000000, 0.2099999999999999922 ) ) ;
#162 = CALENDAR_DATE ( 2022, 22, 6 ) ;
#163 = PRODUCT_DEFINITION_FORMATION_WITH_SPECIFIED_SOURCE ( 'ANY', '', #137, .NOT_KNOWN. ) ;
#164 = PERSON ( 'UNSPECIFIED', 'UNSPECIFIED', 'UNSPECIFIED', ('UNSPECIFIED'), ('UNSPECIFIED'), ('UNSPECIFIED') ) ;
#165 = DIRECTION ( 'NONE',  ( 0.000000000000000000, 0.000000000000000000, 1.000000000000000000 ) ) ;
#166 = PERSON_AND_ORGANIZATION ( #164, #25 ) ;
#167 = ORIENTED_EDGE ( 'NONE', *, *, #44, .T. ) ;
#168 = CC_DESIGN_PERSON_AND_ORGANIZATION_ASSIGNMENT ( #125, #148, ( #137 ) ) ;
#169 = LINE ( 'NONE', #105, #174 ) ;
#170 = DIRECTION ( 'NONE',  ( 1.000000000000000000, 0.000000000000000000, 0.000000000000000000 ) ) ;
#171 = FACE_OUTER_BOUND ( 'NONE', #8, .T. ) ;
#172 = DATE_AND_TIME ( #52, #85 ) ;
#173 = CC_DESIGN_PERSON_AND_ORGANIZATION_ASSIGNMENT ( #94, #24, ( #150 ) ) ;
#174 = VECTOR ( 'NONE', #50, 1000.000000000000000 ) ;
#175 = ORIENTED_EDGE ( 'NONE', *, *, #33, .F. ) ;
ENDSEC;
END-ISO-10303-21;
