ISO-10303-21;
HEADER;
FILE_DESCRIPTION (( 'STEP AP203' ),
    '1' );
FILE_NAME ('4299-E0W.STEP',
    '2015-05-29T14:17:00',
    ( 'admin' ),
    ( '' ),
    'SwSTEP 2.0',
    'SolidWorks 2014',
    '' );
FILE_SCHEMA (( 'CONFIG_CONTROL_DESIGN' ));
ENDSEC;

DATA;
#1 = EDGE_CURVE ( 'NONE', #194, #200, #31, .T. ) ;
#2 = ADVANCED_FACE ( 'NONE', ( #75 ), #45, .T. ) ;
#3 = CARTESIAN_POINT ( 'NONE',  ( 0.5499999999999949400, 3.110602869834276100E-015, -25.39999999999998800 ) ) ;
#4 = EDGE_CURVE ( 'NONE', #194, #145, #29, .T. ) ;
#5 = AXIS2_PLACEMENT_3D ( 'NONE', #8, #15, #92 ) ;
#6 = AXIS2_PLACEMENT_3D ( 'NONE', #267, #11, #226 ) ;
#7 = FACE_OUTER_BOUND ( 'NONE', #150, .T. ) ;
#8 = CARTESIAN_POINT ( 'NONE',  ( -1.950000000000038100, 0.0000000000000000000, 0.0000000000000000000 ) ) ;
#9 = APPROVAL_ROLE ( '' ) ;
#10 = ORIENTED_EDGE ( 'NONE', *, *, #235, .T. ) ;
#11 = DIRECTION ( 'NONE',  ( 1.000000000000000000, 0.0000000000000000000, 0.0000000000000000000 ) ) ;
#12 = PERSON_AND_ORGANIZATION ( #221, #193 ) ;
#13 = AXIS2_PLACEMENT_3D ( 'NONE', #170, #234, #53 ) ;
#14 = PERSON_AND_ORGANIZATION_ROLE ( 'design_owner' ) ;
#15 = DIRECTION ( 'NONE',  ( 1.000000000000000000, 0.0000000000000000000, 0.0000000000000000000 ) ) ;
#16 = CIRCLE ( 'NONE', #133, 25.15000000000002700 ) ;
#17 = ORIENTED_EDGE ( 'NONE', *, *, #26, .T. ) ;
#18 = PERSON_AND_ORGANIZATION ( #221, #193 ) ;
#19 = VECTOR ( 'NONE', #227, 1000.000000000000100 ) ;
#20 = ORIENTED_EDGE ( 'NONE', *, *, #1, .F. ) ;
#21 = VECTOR ( 'NONE', #257, 1000.000000000000000 ) ;
#22 = VECTOR ( 'NONE', #297, 1000.000000000000000 ) ;
#23 = DIRECTION ( 'NONE',  ( 0.0000000000000000000, 0.0000000000000000000, 1.000000000000000000 ) ) ;
#24 = CARTESIAN_POINT ( 'NONE',  ( -2.200000000000000200, 0.0000000000000000000, 0.0000000000000000000 ) ) ;
#25 = CARTESIAN_POINT ( 'NONE',  ( 0.5499999999999949400, 0.0000000000000000000, 0.0000000000000000000 ) ) ;
#26 = EDGE_CURVE ( 'NONE', #131, #119, #218, .T. ) ;
#27 = DIRECTION ( 'NONE',  ( 0.0000000000000000000, 0.0000000000000000000, 1.000000000000000000 ) ) ;
#28 = CARTESIAN_POINT ( 'NONE',  ( 0.0000000000000000000, 0.0000000000000000000, 0.0000000000000000000 ) ) ;
#29 = LINE ( 'NONE', #146, #21 ) ;
#30 = FACE_OUTER_BOUND ( 'NONE', #123, .T. ) ;
#31 = CIRCLE ( 'NONE', #264, 25.39999999999998800 ) ;
#32 = PRODUCT_DEFINITION_FORMATION_WITH_SPECIFIED_SOURCE ( 'ANY', '', #176, .NOT_KNOWN. ) ;
#33 = UNCERTAINTY_MEASURE_WITH_UNIT (LENGTH_MEASURE( 1.000000000000000100E-005 ), #37, 'distance_accuracy_value', 'NONE');
#34 = DIRECTION ( 'NONE',  ( 0.0000000000000000000, 0.0000000000000000000, -1.000000000000000000 ) ) ;
#35 = DATE_AND_TIME ( #178, #224 ) ;
#36 = DESIGN_CONTEXT ( 'detailed design', #66, 'design' ) ;
#37 =( LENGTH_UNIT ( ) NAMED_UNIT ( * ) SI_UNIT ( .MILLI., .METRE. ) );
#38 = AXIS2_PLACEMENT_3D ( 'NONE', #107, #262, #172 ) ;
#39 = ORIENTED_EDGE ( 'NONE', *, *, #120, .F. ) ;
#40 = EDGE_CURVE ( 'NONE', #131, #54, #166, .T. ) ;
#41 = ORIENTED_EDGE ( 'NONE', *, *, #40, .F. ) ;
#42 = CARTESIAN_POINT ( 'NONE',  ( 2.200000000000000200, 0.0000000000000000000, 0.0000000000000000000 ) ) ;
#43 = AXIS2_PLACEMENT_3D ( 'NONE', #291, #242, #261 ) ;
#44 = EDGE_CURVE ( 'NONE', #200, #239, #128, .T. ) ;
#45 = CONICAL_SURFACE ( 'NONE', #132, 25.15000000000002700, 0.7853981633974482800 ) ;
#46 = ORIENTED_EDGE ( 'NONE', *, *, #94, .T. ) ;
#47 = ORIENTED_EDGE ( 'NONE', *, *, #94, .F. ) ;
#48 = ADVANCED_BREP_SHAPE_REPRESENTATION ( '4299-E0W', ( #81, #116 ), #279 ) ;
#49 = AXIS2_PLACEMENT_3D ( 'NONE', #62, #293, #73 ) ;
#50 =( NAMED_UNIT ( * ) PLANE_ANGLE_UNIT ( ) SI_UNIT ( $, .RADIAN. ) );
#51 = CC_DESIGN_PERSON_AND_ORGANIZATION_ASSIGNMENT ( #108, #182, ( #32 ) ) ;
#52 = CARTESIAN_POINT ( 'NONE',  ( 0.5499999999999949400, 0.0000000000000000000, 0.0000000000000000000 ) ) ;
#53 = DIRECTION ( 'NONE',  ( 0.0000000000000000000, 0.0000000000000000000, 1.000000000000000000 ) ) ;
#54 = VERTEX_POINT ( 'NONE', #298 ) ;
#55 = ORIENTED_EDGE ( 'NONE', *, *, #120, .T. ) ;
#56 = FACE_OUTER_BOUND ( 'NONE', #216, .T. ) ;
#57 = DIRECTION ( 'NONE',  ( 0.0000000000000000000, -1.000000000000000000, 0.0000000000000000000 ) ) ;
#58 = EDGE_CURVE ( 'NONE', #119, #54, #211, .T. ) ;
#59 = ORIENTED_EDGE ( 'NONE', *, *, #40, .T. ) ;
#60 = CALENDAR_DATE ( 2015, 29, 5 ) ;
#61 = AXIS2_PLACEMENT_3D ( 'NONE', #25, #102, #23 ) ;
#62 = CARTESIAN_POINT ( 'NONE',  ( 0.5499999999999949400, 0.0000000000000000000, 0.0000000000000000000 ) ) ;
#63 = DATE_TIME_ROLE ( 'creation_date' ) ;
#64 = DIRECTION ( 'NONE',  ( 0.7071067811865474600, 8.659560562354932900E-017, 0.7071067811865474600 ) ) ;
#65 = ADVANCED_FACE ( 'NONE', ( #175 ), #214, .T. ) ;
#66 = APPLICATION_CONTEXT ( 'configuration controlled 3d designs of mechanical parts and assemblies' ) ;
#67 = ADVANCED_FACE ( 'NONE', ( #7 ), #126, .F. ) ;
#68 = EDGE_LOOP ( 'NONE', ( #47, #270, #199, #39 ) ) ;
#69 = PERSON_AND_ORGANIZATION ( #221, #193 ) ;
#70 = DIRECTION ( 'NONE',  ( -1.000000000000000000, -0.0000000000000000000, -0.0000000000000000000 ) ) ;
#71 = APPROVAL_DATE_TIME ( #177, #195 ) ;
#72 = ORIENTED_EDGE ( 'NONE', *, *, #44, .T. ) ;
#73 = DIRECTION ( 'NONE',  ( 0.0000000000000000000, 0.0000000000000000000, 1.000000000000000000 ) ) ;
#74 = DIRECTION ( 'NONE',  ( -1.000000000000000000, -0.0000000000000000000, -0.0000000000000000000 ) ) ;
#75 = FACE_OUTER_BOUND ( 'NONE', #86, .T. ) ;
#76 = ORIENTED_EDGE ( 'NONE', *, *, #98, .F. ) ;
#77 = LOCAL_TIME ( 10, 17, 0.0000000000000000000, #181 ) ;
#78 = CARTESIAN_POINT ( 'NONE',  ( -2.200000000000000200, 0.0000000000000000000, 0.0000000000000000000 ) ) ;
#79 = DIRECTION ( 'NONE',  ( -1.000000000000000000, -0.0000000000000000000, -0.0000000000000000000 ) ) ;
#80 = CARTESIAN_POINT ( 'NONE',  ( -2.200000000000000200, 3.079986699855596600E-015, 25.15000000000002700 ) ) ;
#81 = MANIFOLD_SOLID_BREP ( '4299-001-1-solid1', #127 ) ;
#82 = ADVANCED_FACE ( 'NONE', ( #151 ), #281, .T. ) ;
#83 = AXIS2_PLACEMENT_3D ( 'NONE', #114, #209, #196 ) ;
#84 = EDGE_LOOP ( 'NONE', ( #161, #72, #149, #206 ) ) ;
#85 = CARTESIAN_POINT ( 'NONE',  ( -227.7999917996888500, 0.0000000000000000000, 0.0000000000000000000 ) ) ;
#86 = EDGE_LOOP ( 'NONE', ( #152, #225, #55, #110 ) ) ;
#87 = CC_DESIGN_DATE_AND_TIME_ASSIGNMENT ( #35, #63, ( #241 ) ) ;
#88 = CARTESIAN_POINT ( 'NONE',  ( -2.200000000000000200, 0.0000000000000000000, -25.15000000000002700 ) ) ;
#89 = CARTESIAN_POINT ( 'NONE',  ( 0.5499999999999949400, 3.110602869834276100E-015, -25.39999999999998800 ) ) ;
#90 = PERSON_AND_ORGANIZATION ( #221, #193 ) ;
#91 = ORIENTED_EDGE ( 'NONE', *, *, #154, .T. ) ;
#92 = DIRECTION ( 'NONE',  ( 0.0000000000000000000, 0.0000000000000000000, -1.000000000000000000 ) ) ;
#93 = CC_DESIGN_SECURITY_CLASSIFICATION ( #187, ( #32 ) ) ;
#94 = EDGE_CURVE ( 'NONE', #248, #156, #16, .T. ) ;
#95 = ORIENTED_EDGE ( 'NONE', *, *, #58, .T. ) ;
#96 = ORIENTED_EDGE ( 'NONE', *, *, #154, .F. ) ;
#97 = CARTESIAN_POINT ( 'NONE',  ( -2.200000000000000200, 0.0000000000000000000, 0.0000000000000000000 ) ) ;
#98 = EDGE_CURVE ( 'NONE', #119, #194, #129, .T. ) ;
#99 = CARTESIAN_POINT ( 'NONE',  ( -2.200000000000000200, 0.0000000000000000000, -25.15000000000002700 ) ) ;
#100 = DIRECTION ( 'NONE',  ( -1.000000000000000000, -0.0000000000000000000, -0.0000000000000000000 ) ) ;
#101 = DATE_AND_TIME ( #104, #77 ) ;
#102 = DIRECTION ( 'NONE',  ( -1.000000000000000000, -0.0000000000000000000, -0.0000000000000000000 ) ) ;
#103 = ORIENTED_EDGE ( 'NONE', *, *, #179, .T. ) ;
#104 = CALENDAR_DATE ( 2015, 29, 5 ) ;
#105 = CARTESIAN_POINT ( 'NONE',  ( -2.200000000000000200, 0.0000000000000000000, 0.0000000000000000000 ) ) ;
#106 = APPROVAL_STATUS ( 'not_yet_approved' ) ;
#107 = CARTESIAN_POINT ( 'NONE',  ( -2.200000000000000200, 0.0000000000000000000, 0.0000000000000000000 ) ) ;
#108 = PERSON_AND_ORGANIZATION ( #221, #193 ) ;
#109 = CC_DESIGN_PERSON_AND_ORGANIZATION_ASSIGNMENT ( #125, #157, ( #32 ) ) ;
#110 = ORIENTED_EDGE ( 'NONE', *, *, #290, .F. ) ;
#111 = CYLINDRICAL_SURFACE ( 'NONE', #283, 25.39999999999998800 ) ;
#112 = DIRECTION ( 'NONE',  ( 0.0000000000000000000, 0.0000000000000000000, -1.000000000000000000 ) ) ;
#113 = VECTOR ( 'NONE', #192, 1000.000000000000000 ) ;
#114 = CARTESIAN_POINT ( 'NONE',  ( -1.950000000000038100, 0.0000000000000000000, 0.0000000000000000000 ) ) ;
#115 = ORIENTED_EDGE ( 'NONE', *, *, #4, .T. ) ;
#116 = AXIS2_PLACEMENT_3D ( 'NONE', #28, #252, #273 ) ;
#117 = ORIENTED_EDGE ( 'NONE', *, *, #44, .F. ) ;
#118 = DIRECTION ( 'NONE',  ( 1.000000000000000000, 0.0000000000000000000, 0.0000000000000000000 ) ) ;
#119 = VERTEX_POINT ( 'NONE', #288 ) ;
#120 = EDGE_CURVE ( 'NONE', #156, #239, #217, .T. ) ;
#121 = CC_DESIGN_DATE_AND_TIME_ASSIGNMENT ( #168, #122, ( #187 ) ) ;
#122 = DATE_TIME_ROLE ( 'classification_date' ) ;
#123 = EDGE_LOOP ( 'NONE', ( #117, #10, #115, #198 ) ) ;
#124 = FACE_OUTER_BOUND ( 'NONE', #84, .T. ) ;
#125 = PERSON_AND_ORGANIZATION ( #221, #193 ) ;
#126 = PLANE ( 'NONE',  #301 ) ;
#127 = CLOSED_SHELL ( 'NONE', ( #65, #277, #280, #189, #67, #229, #82, #153, #2 ) ) ;
#128 = LINE ( 'NONE', #266, #219 ) ;
#129 = LINE ( 'NONE', #147, #113 ) ;
#130 = DIRECTION ( 'NONE',  ( 0.0000000000000000000, 0.0000000000000000000, 1.000000000000000000 ) ) ;
#131 = VERTEX_POINT ( 'NONE', #42 ) ;
#132 = AXIS2_PLACEMENT_3D ( 'NONE', #105, #191, #140 ) ;
#133 = AXIS2_PLACEMENT_3D ( 'NONE', #78, #79, #282 ) ;
#134 = CC_DESIGN_APPROVAL ( #195, ( #241 ) ) ;
#135 = APPROVAL_DATE_TIME ( #243, #202 ) ;
#136 = CALENDAR_DATE ( 2015, 29, 5 ) ;
#137 = LINE ( 'NONE', #3, #22 ) ;
#138 = DIRECTION ( 'NONE',  ( -1.000000000000000000, -0.0000000000000000000, -0.0000000000000000000 ) ) ;
#139 = DIRECTION ( 'NONE',  ( 0.0000000000000000000, 0.0000000000000000000, 1.000000000000000000 ) ) ;
#140 = DIRECTION ( 'NONE',  ( 0.0000000000000000000, 0.0000000000000000000, -1.000000000000000000 ) ) ;
#141 = FACE_OUTER_BOUND ( 'NONE', #213, .T. ) ;
#142 = EDGE_LOOP ( 'NONE', ( #169, #91, #20, #76 ) ) ;
#143 = CARTESIAN_POINT ( 'NONE',  ( -2.200000000000000200, 0.0000000000000000000, 0.0000000000000000000 ) ) ;
#144 = PRODUCT_DEFINITION_SHAPE ( 'NONE', 'NONE',  #241 ) ;
#145 = VERTEX_POINT ( 'NONE', #238 ) ;
#146 = CARTESIAN_POINT ( 'NONE',  ( -2.200000000000000200, 0.0000000000000000000, 25.39999999999998800 ) ) ;
#147 = CARTESIAN_POINT ( 'NONE',  ( 0.5499999999999949400, 0.0000000000000000000, 25.39999999999998800 ) ) ;
#148 = CIRCLE ( 'NONE', #268, 25.15000000000002700 ) ;
#149 = ORIENTED_EDGE ( 'NONE', *, *, #246, .T. ) ;
#150 = EDGE_LOOP ( 'NONE', ( #245, #46 ) ) ;
#151 = FACE_OUTER_BOUND ( 'NONE', #287, .T. ) ;
#152 = ORIENTED_EDGE ( 'NONE', *, *, #253, .F. ) ;
#153 = ADVANCED_FACE ( 'NONE', ( #56 ), #237, .T. ) ;
#154 = EDGE_CURVE ( 'NONE', #54, #200, #137, .T. ) ;
#155 = CIRCLE ( 'NONE', #83, 25.39999999999998800 ) ;
#156 = VERTEX_POINT ( 'NONE', #99 ) ;
#157 = PERSON_AND_ORGANIZATION_ROLE ( 'design_supplier' ) ;
#158 = CARTESIAN_POINT ( 'NONE',  ( -227.7999917996888500, 7.521508134442820300E-018, -0.06141777482029584000 ) ) ;
#159 = ORIENTED_EDGE ( 'NONE', *, *, #235, .F. ) ;
#160 = APPLICATION_PROTOCOL_DEFINITION ( 'international standard', 'config_control_design', 1994, #66 ) ;
#161 = ORIENTED_EDGE ( 'NONE', *, *, #1, .T. ) ;
#162 = LOCAL_TIME ( 10, 17, 0.0000000000000000000, #184 ) ;
#163 = ORIENTED_EDGE ( 'NONE', *, *, #58, .F. ) ;
#164 = PRODUCT_RELATED_PRODUCT_CATEGORY ( 'detail', '', ( #176 ) ) ;
#165 = CARTESIAN_POINT ( 'NONE',  ( -227.7999917996888500, 0.0000000000000000000, 0.06141777482029584000 ) ) ;
#166 = CIRCLE ( 'NONE', #250, 229.9999999999999700 ) ;
#167 = CIRCLE ( 'NONE', #49, 25.39999999999998800 ) ;
#168 = DATE_AND_TIME ( #136, #263 ) ;
#169 = ORIENTED_EDGE ( 'NONE', *, *, #179, .F. ) ;
#170 = CARTESIAN_POINT ( 'NONE',  ( 0.8273903593484233100, 0.0000000000000000000, 0.0000000000000000000 ) ) ;
#171 = LINE ( 'NONE', #80, #201 ) ;
#172 = DIRECTION ( 'NONE',  ( 0.0000000000000000000, 0.0000000000000000000, 1.000000000000000000 ) ) ;
#173 = APPROVAL_ROLE ( '' ) ;
#174 = AXIS2_PLACEMENT_3D ( 'NONE', #24, #186, #34 ) ;
#175 = FACE_OUTER_BOUND ( 'NONE', #68, .T. ) ;
#176 = PRODUCT ( '4299-E0W', '4299-E0W', '', ( #204 ) ) ;
#177 = DATE_AND_TIME ( #60, #162 ) ;
#178 = CALENDAR_DATE ( 2015, 29, 5 ) ;
#179 = EDGE_CURVE ( 'NONE', #54, #119, #180, .T. ) ;
#180 = CIRCLE ( 'NONE', #13, 25.15165745294045200 ) ;
#181 = COORDINATED_UNIVERSAL_TIME_OFFSET ( 5, 0, .BEHIND. ) ;
#182 = PERSON_AND_ORGANIZATION_ROLE ( 'creator' ) ;
#183 = DIRECTION ( 'NONE',  ( 0.0000000000000000000, -1.224646799147353200E-016, 1.000000000000000000 ) ) ;
#184 = COORDINATED_UNIVERSAL_TIME_OFFSET ( 5, 0, .BEHIND. ) ;
#185 = ORIENTED_EDGE ( 'NONE', *, *, #26, .F. ) ;
#186 = DIRECTION ( 'NONE',  ( 1.000000000000000000, 0.0000000000000000000, 0.0000000000000000000 ) ) ;
#187 = SECURITY_CLASSIFICATION ( '', '', #220 ) ;
#188 = TOROIDAL_SURFACE ( 'NONE', #256, 0.06141777482029584000, 229.9999999999999700 ) ;
#189 = ADVANCED_FACE ( 'NONE', ( #124 ), #233, .T. ) ;
#190 = DIRECTION ( 'NONE',  ( -1.000000000000000000, -0.0000000000000000000, -0.0000000000000000000 ) ) ;
#191 = DIRECTION ( 'NONE',  ( 1.000000000000000000, 0.0000000000000000000, 0.0000000000000000000 ) ) ;
#192 = DIRECTION ( 'NONE',  ( -0.7450395119740437200, 0.0000000000000000000, 0.6670203337211533200 ) ) ;
#193 = ORGANIZATION ( 'UNSPECIFIED', 'UNSPECIFIED', '' ) ;
#194 = VERTEX_POINT ( 'NONE', #286 ) ;
#195 = APPROVAL ( #106, 'UNSPECIFIED' ) ;
#196 = DIRECTION ( 'NONE',  ( 0.0000000000000000000, 0.0000000000000000000, -1.000000000000000000 ) ) ;
#197 = APPROVAL_PERSON_ORGANIZATION ( #18, #295, #210 ) ;
#198 = ORIENTED_EDGE ( 'NONE', *, *, #290, .T. ) ;
#199 = ORIENTED_EDGE ( 'NONE', *, *, #246, .F. ) ;
#200 = VERTEX_POINT ( 'NONE', #89 ) ;
#201 = VECTOR ( 'NONE', #64, 1000.000000000000100 ) ;
#202 = APPROVAL ( #215, 'UNSPECIFIED' ) ;
#203 = DIRECTION ( 'NONE',  ( 0.0000000000000000000, 0.0000000000000000000, -1.000000000000000000 ) ) ;
#204 = MECHANICAL_CONTEXT ( 'NONE', #274, 'mechanical' ) ;
#205 = FACE_OUTER_BOUND ( 'NONE', #142, .T. ) ;
#206 = ORIENTED_EDGE ( 'NONE', *, *, #4, .F. ) ;
#207 = CARTESIAN_POINT ( 'NONE',  ( -1.950000000000038100, 3.110602869834276100E-015, -25.39999999999998800 ) ) ;
#208 = CC_DESIGN_PERSON_AND_ORGANIZATION_ASSIGNMENT ( #90, #14, ( #176 ) ) ;
#209 = DIRECTION ( 'NONE',  ( 1.000000000000000000, 0.0000000000000000000, 0.0000000000000000000 ) ) ;
#210 = APPROVAL_ROLE ( '' ) ;
#211 = CIRCLE ( 'NONE', #6, 25.15165745294045200 ) ;
#212 = CARTESIAN_POINT ( 'NONE',  ( -2.200000000000000200, 0.0000000000000000000, 0.0000000000000000000 ) ) ;
#213 = EDGE_LOOP ( 'NONE', ( #185, #59, #103 ) ) ;
#214 = CONICAL_SURFACE ( 'NONE', #174, 25.15000000000002700, 0.7853981633974482800 ) ;
#215 = APPROVAL_STATUS ( 'not_yet_approved' ) ;
#216 = EDGE_LOOP ( 'NONE', ( #96, #163, #232, #159 ) ) ;
#217 = LINE ( 'NONE', #88, #19 ) ;
#218 = CIRCLE ( 'NONE', #240, 229.9999999999999700 ) ;
#219 = VECTOR ( 'NONE', #100, 1000.000000000000000 ) ;
#220 = SECURITY_CLASSIFICATION_LEVEL ( 'unclassified' ) ;
#221 = PERSON ( 'UNSPECIFIED', 'UNSPECIFIED', 'UNSPECIFIED', ('UNSPECIFIED'), ('UNSPECIFIED'), ('UNSPECIFIED') ) ;
#222 = CALENDAR_DATE ( 2015, 29, 5 ) ;
#223 = EDGE_CURVE ( 'NONE', #156, #248, #148, .T. ) ;
#224 = LOCAL_TIME ( 10, 17, 0.0000000000000000000, #244 ) ;
#225 = ORIENTED_EDGE ( 'NONE', *, *, #223, .F. ) ;
#226 = DIRECTION ( 'NONE',  ( 0.0000000000000000000, 0.0000000000000000000, 1.000000000000000000 ) ) ;
#227 = DIRECTION ( 'NONE',  ( 0.7071067811865474600, 0.0000000000000000000, -0.7071067811865474600 ) ) ;
#228 = APPROVAL_PERSON_ORGANIZATION ( #276, #202, #9 ) ;
#229 = ADVANCED_FACE ( 'NONE', ( #30 ), #111, .T. ) ;
#230 = CIRCLE ( 'NONE', #5, 25.39999999999998800 ) ;
#231 = CC_DESIGN_APPROVAL ( #295, ( #187 ) ) ;
#232 = ORIENTED_EDGE ( 'NONE', *, *, #98, .T. ) ;
#233 = CYLINDRICAL_SURFACE ( 'NONE', #38, 25.39999999999998800 ) ;
#234 = DIRECTION ( 'NONE',  ( 1.000000000000000000, 0.0000000000000000000, 0.0000000000000000000 ) ) ;
#235 = EDGE_CURVE ( 'NONE', #200, #194, #167, .T. ) ;
#236 = SHAPE_DEFINITION_REPRESENTATION ( #144, #48 ) ;
#237 = CONICAL_SURFACE ( 'NONE', #43, 25.39999999999998800, 0.7302022511204515600 ) ;
#238 = CARTESIAN_POINT ( 'NONE',  ( -1.950000000000038100, 0.0000000000000000000, 25.39999999999998800 ) ) ;
#239 = VERTEX_POINT ( 'NONE', #207 ) ;
#240 = AXIS2_PLACEMENT_3D ( 'NONE', #165, #57, #112 ) ;
#241 = PRODUCT_DEFINITION ( 'UNKNOWN', '', #32, #36 ) ;
#242 = DIRECTION ( 'NONE',  ( -1.000000000000000000, -0.0000000000000000000, -0.0000000000000000000 ) ) ;
#243 = DATE_AND_TIME ( #222, #249 ) ;
#244 = COORDINATED_UNIVERSAL_TIME_OFFSET ( 5, 0, .BEHIND. ) ;
#245 = ORIENTED_EDGE ( 'NONE', *, *, #223, .T. ) ;
#246 = EDGE_CURVE ( 'NONE', #239, #145, #230, .T. ) ;
#247 = CC_DESIGN_APPROVAL ( #202, ( #32 ) ) ;
#248 = VERTEX_POINT ( 'NONE', #300 ) ;
#249 = LOCAL_TIME ( 10, 17, 0.0000000000000000000, #271 ) ;
#250 = AXIS2_PLACEMENT_3D ( 'NONE', #158, #294, #183 ) ;
#251 = DIRECTION ( 'NONE',  ( -1.000000000000000000, -0.0000000000000000000, -0.0000000000000000000 ) ) ;
#252 = DIRECTION ( 'NONE',  ( 0.0000000000000000000, 0.0000000000000000000, 1.000000000000000000 ) ) ;
#253 = EDGE_CURVE ( 'NONE', #248, #145, #171, .T. ) ;
#254 = CONICAL_SURFACE ( 'NONE', #61, 25.39999999999998800, 0.7302022511204515600 ) ;
#255 = APPROVAL_PERSON_ORGANIZATION ( #12, #195, #173 ) ;
#256 = AXIS2_PLACEMENT_3D ( 'NONE', #278, #70, #296 ) ;
#257 = DIRECTION ( 'NONE',  ( -1.000000000000000000, -0.0000000000000000000, -0.0000000000000000000 ) ) ;
#258 = PERSON_AND_ORGANIZATION_ROLE ( 'classification_officer' ) ;
#259 = APPROVAL_DATE_TIME ( #101, #295 ) ;
#260 = COORDINATED_UNIVERSAL_TIME_OFFSET ( 5, 0, .BEHIND. ) ;
#261 = DIRECTION ( 'NONE',  ( 0.0000000000000000000, 0.0000000000000000000, 1.000000000000000000 ) ) ;
#262 = DIRECTION ( 'NONE',  ( -1.000000000000000000, -0.0000000000000000000, -0.0000000000000000000 ) ) ;
#263 = LOCAL_TIME ( 10, 17, 0.0000000000000000000, #260 ) ;
#264 = AXIS2_PLACEMENT_3D ( 'NONE', #52, #74, #139 ) ;
#265 = CC_DESIGN_PERSON_AND_ORGANIZATION_ASSIGNMENT ( #69, #258, ( #187 ) ) ;
#266 = CARTESIAN_POINT ( 'NONE',  ( -2.200000000000000200, 3.110602869834276100E-015, -25.39999999999998800 ) ) ;
#267 = CARTESIAN_POINT ( 'NONE',  ( 0.8273903593484233100, 0.0000000000000000000, 0.0000000000000000000 ) ) ;
#268 = AXIS2_PLACEMENT_3D ( 'NONE', #143, #251, #203 ) ;
#269 = PERSON_AND_ORGANIZATION_ROLE ( 'creator' ) ;
#270 = ORIENTED_EDGE ( 'NONE', *, *, #253, .T. ) ;
#271 = COORDINATED_UNIVERSAL_TIME_OFFSET ( 5, 0, .BEHIND. ) ;
#272 = APPROVAL_STATUS ( 'not_yet_approved' ) ;
#273 = DIRECTION ( 'NONE',  ( 1.000000000000000000, 0.0000000000000000000, 0.0000000000000000000 ) ) ;
#274 = APPLICATION_CONTEXT ( 'configuration controlled 3d designs of mechanical parts and assemblies' ) ;
#275 = APPLICATION_PROTOCOL_DEFINITION ( 'international standard', 'config_control_design', 1994, #274 ) ;
#276 = PERSON_AND_ORGANIZATION ( #221, #193 ) ;
#277 = ADVANCED_FACE ( 'NONE', ( #205 ), #254, .T. ) ;
#278 = CARTESIAN_POINT ( 'NONE',  ( -227.7999917996888500, 0.0000000000000000000, 0.0000000000000000000 ) ) ;
#279 =( GEOMETRIC_REPRESENTATION_CONTEXT ( 3 ) GLOBAL_UNCERTAINTY_ASSIGNED_CONTEXT ( ( #33 ) ) GLOBAL_UNIT_ASSIGNED_CONTEXT ( ( #37, #50, #289 ) ) REPRESENTATION_CONTEXT ( 'NONE', 'WORKASPACE' ) );
#280 = ADVANCED_FACE ( 'NONE', ( #141 ), #188, .T. ) ;
#281 = TOROIDAL_SURFACE ( 'NONE', #285, 0.06141777482029584000, 229.9999999999999700 ) ;
#282 = DIRECTION ( 'NONE',  ( 0.0000000000000000000, 0.0000000000000000000, -1.000000000000000000 ) ) ;
#283 = AXIS2_PLACEMENT_3D ( 'NONE', #212, #190, #130 ) ;
#284 = CC_DESIGN_PERSON_AND_ORGANIZATION_ASSIGNMENT ( #292, #269, ( #241 ) ) ;
#285 = AXIS2_PLACEMENT_3D ( 'NONE', #85, #138, #27 ) ;
#286 = CARTESIAN_POINT ( 'NONE',  ( 0.5499999999999949400, 0.0000000000000000000, 25.39999999999998800 ) ) ;
#287 = EDGE_LOOP ( 'NONE', ( #41, #17, #95 ) ) ;
#288 = CARTESIAN_POINT ( 'NONE',  ( 0.8273903593484371900, 0.0000000000000000000, 25.15165745294045200 ) ) ;
#289 =( NAMED_UNIT ( * ) SI_UNIT ( $, .STERADIAN. ) SOLID_ANGLE_UNIT ( ) );
#290 = EDGE_CURVE ( 'NONE', #145, #239, #155, .T. ) ;
#291 = CARTESIAN_POINT ( 'NONE',  ( 0.5499999999999949400, 0.0000000000000000000, 0.0000000000000000000 ) ) ;
#292 = PERSON_AND_ORGANIZATION ( #221, #193 ) ;
#293 = DIRECTION ( 'NONE',  ( -1.000000000000000000, -0.0000000000000000000, -0.0000000000000000000 ) ) ;
#294 = DIRECTION ( 'NONE',  ( -0.0000000000000000000, 1.000000000000000000, 1.224646799147353200E-016 ) ) ;
#295 = APPROVAL ( #272, 'UNSPECIFIED' ) ;
#296 = DIRECTION ( 'NONE',  ( 0.0000000000000000000, 0.0000000000000000000, 1.000000000000000000 ) ) ;
#297 = DIRECTION ( 'NONE',  ( -0.7450395119740437200, 8.168643166578097700E-017, -0.6670203337211533200 ) ) ;
#298 = CARTESIAN_POINT ( 'NONE',  ( 0.8273903593484371900, 3.080189679299419500E-015, -25.15165745294045200 ) ) ;
#299 = DIRECTION ( 'NONE',  ( 0.0000000000000000000, 0.0000000000000000000, -1.000000000000000000 ) ) ;
#300 = CARTESIAN_POINT ( 'NONE',  ( -2.200000000000000200, 3.095294784844936200E-015, 25.15000000000002700 ) ) ;
#301 = AXIS2_PLACEMENT_3D ( 'NONE', #97, #118, #299 ) ;
ENDSEC;
END-ISO-10303-21;
