ISO-10303-21;
HEADER;
FILE_DESCRIPTION (( 'STEP AP203' ),
    '1' );
FILE_NAME ('Web Model 63226.STEP',
    '2017-01-31T18:46:51',
    ( '' ),
    ( '' ),
    'SwSTEP 2.0',
    'SolidWorks 2016',
    '' );
FILE_SCHEMA (( 'CONFIG_CONTROL_DESIGN' ));
ENDSEC;

DATA;
#1 = APPROVAL_PERSON_ORGANIZATION ( #71, #168, #143 ) ;
#2 = CIRCLE ( 'NONE', #88, 10.00000000000000000 ) ;
#3 = CC_DESIGN_DATE_AND_TIME_ASSIGNMENT ( #114, #70, ( #34 ) ) ;
#4 = PERSON_AND_ORGANIZATION ( #61, #87 ) ;
#5 = ORIENTED_EDGE ( 'NONE', *, *, #19, .T. ) ;
#6 = AXIS2_PLACEMENT_3D ( 'NONE', #12, #136, #139 ) ;
#7 = PERSON_AND_ORGANIZATION ( #61, #87 ) ;
#8 = ADVANCED_FACE ( 'NONE', ( #133 ), #62, .T. ) ;
#9 = DIRECTION ( 'NONE',  ( 0.0000000000000000000, 0.0000000000000000000, 1.000000000000000000 ) ) ;
#10 = DIRECTION ( 'NONE',  ( 0.0000000000000000000, 0.0000000000000000000, 1.000000000000000000 ) ) ;
#11 = ORIENTED_EDGE ( 'NONE', *, *, #56, .T. ) ;
#12 = CARTESIAN_POINT ( 'NONE',  ( 0.0000000000000000000, 0.0000000000000000000, 0.0000000000000000000 ) ) ;
#13 = CARTESIAN_POINT ( 'NONE',  ( 0.0000000000000000000, 0.0000000000000000000, 0.0000000000000000000 ) ) ;
#14 = CALENDAR_DATE ( 2017, 31, 1 ) ;
#15 = PERSON_AND_ORGANIZATION_ROLE ( 'creator' ) ;
#16 = APPROVAL_DATE_TIME ( #52, #168 ) ;
#17 = FACE_OUTER_BOUND ( 'NONE', #129, .T. ) ;
#18 = ADVANCED_BREP_SHAPE_REPRESENTATION ( 'Web Model 63226', ( #41, #6 ), #128 ) ;
#19 = EDGE_CURVE ( 'NONE', #158, #37, #145, .T. ) ;
#20 = PERSON_AND_ORGANIZATION ( #61, #87 ) ;
#21 = CC_DESIGN_PERSON_AND_ORGANIZATION_ASSIGNMENT ( #105, #96, ( #34 ) ) ;
#22 = CARTESIAN_POINT ( 'NONE',  ( 0.0000000000000000000, 0.0000000000000000000, 0.0000000000000000000 ) ) ;
#23 =( LENGTH_UNIT ( ) NAMED_UNIT ( * ) SI_UNIT ( .MILLI., .METRE. ) );
#24 = PERSON_AND_ORGANIZATION_ROLE ( 'design_owner' ) ;
#25 = APPLICATION_PROTOCOL_DEFINITION ( 'international standard', 'config_control_design', 1994, #82 ) ;
#26 = CALENDAR_DATE ( 2017, 31, 1 ) ;
#27 = LOCAL_TIME ( 13, 46, 51.00000000000000000, #144 ) ;
#28 = LINE ( 'NONE', #107, #64 ) ;
#29 = CARTESIAN_POINT ( 'NONE',  ( 10.00000000000000000, 1.224646799147353300E-015, 1.600000000000000100 ) ) ;
#30 = EDGE_CURVE ( 'NONE', #37, #158, #93, .T. ) ;
#31 = APPROVAL_PERSON_ORGANIZATION ( #120, #117, #95 ) ;
#32 = PERSON_AND_ORGANIZATION ( #61, #87 ) ;
#33 = CARTESIAN_POINT ( 'NONE',  ( -10.00000000000000000, 0.0000000000000000000, 0.0000000000000000000 ) ) ;
#34 = SECURITY_CLASSIFICATION ( '', '', #160 ) ;
#35 = DIRECTION ( 'NONE',  ( 1.000000000000000000, 0.0000000000000000000, -0.0000000000000000000 ) ) ;
#36 = LOCAL_TIME ( 13, 46, 51.00000000000000000, #153 ) ;
#37 = VERTEX_POINT ( 'NONE', #33 ) ;
#38 =( NAMED_UNIT ( * ) PLANE_ANGLE_UNIT ( ) SI_UNIT ( $, .RADIAN. ) );
#39 = DESIGN_CONTEXT ( 'detailed design', #171, 'design' ) ;
#40 = DATE_AND_TIME ( #65, #91 ) ;
#41 = MANIFOLD_SOLID_BREP ( 'Extrude1', #73 ) ;
#42 = CC_DESIGN_APPROVAL ( #142, ( #152 ) ) ;
#43 = EDGE_CURVE ( 'NONE', #47, #163, #2, .T. ) ;
#44 = PERSON_AND_ORGANIZATION ( #61, #87 ) ;
#45 = ORIENTED_EDGE ( 'NONE', *, *, #51, .T. ) ;
#46 = APPROVAL_STATUS ( 'not_yet_approved' ) ;
#47 = VERTEX_POINT ( 'NONE', #170 ) ;
#48 = DIRECTION ( 'NONE',  ( 1.000000000000000000, 0.0000000000000000000, 0.0000000000000000000 ) ) ;
#49 = LOCAL_TIME ( 13, 46, 51.00000000000000000, #151 ) ;
#50 = ADVANCED_FACE ( 'NONE', ( #106 ), #174, .T. ) ;
#51 = EDGE_CURVE ( 'NONE', #47, #37, #28, .T. ) ;
#52 = DATE_AND_TIME ( #86, #27 ) ;
#53 = APPLICATION_PROTOCOL_DEFINITION ( 'international standard', 'config_control_design', 1994, #171 ) ;
#54 = DIRECTION ( 'NONE',  ( -0.0000000000000000000, -0.0000000000000000000, -1.000000000000000000 ) ) ;
#55 = AXIS2_PLACEMENT_3D ( 'NONE', #74, #102, #99 ) ;
#56 = EDGE_CURVE ( 'NONE', #163, #158, #101, .T. ) ;
#57 = VECTOR ( 'NONE', #175, 1000.000000000000000 ) ;
#58 = CC_DESIGN_PERSON_AND_ORGANIZATION_ASSIGNMENT ( #4, #92, ( #152 ) ) ;
#59 = APPROVAL_DATE_TIME ( #100, #142 ) ;
#60 = AXIS2_PLACEMENT_3D ( 'NONE', #149, #167, #48 ) ;
#61 = PERSON ( 'UNSPECIFIED', 'UNSPECIFIED', 'UNSPECIFIED', ('UNSPECIFIED'), ('UNSPECIFIED'), ('UNSPECIFIED') ) ;
#62 = CYLINDRICAL_SURFACE ( 'NONE', #76, 10.00000000000000000 ) ;
#63 = DIRECTION ( 'NONE',  ( 0.0000000000000000000, 0.0000000000000000000, 1.000000000000000000 ) ) ;
#64 = VECTOR ( 'NONE', #54, 1000.000000000000000 ) ;
#65 = CALENDAR_DATE ( 2017, 31, 1 ) ;
#66 = APPROVAL_PERSON_ORGANIZATION ( #20, #142, #77 ) ;
#67 = AXIS2_PLACEMENT_3D ( 'NONE', #22, #9, #89 ) ;
#68 = DATE_TIME_ROLE ( 'creation_date' ) ;
#69 = FACE_OUTER_BOUND ( 'NONE', #97, .T. ) ;
#70 = DATE_TIME_ROLE ( 'classification_date' ) ;
#71 = PERSON_AND_ORGANIZATION ( #61, #87 ) ;
#72 = CIRCLE ( 'NONE', #135, 10.00000000000000000 ) ;
#73 = CLOSED_SHELL ( 'NONE', ( #50, #8, #125, #166 ) ) ;
#74 = CARTESIAN_POINT ( 'NONE',  ( 0.0000000000000000000, 0.0000000000000000000, 1.600000000000000100 ) ) ;
#75 = CC_DESIGN_APPROVAL ( #168, ( #34 ) ) ;
#76 = AXIS2_PLACEMENT_3D ( 'NONE', #134, #115, #122 ) ;
#77 = APPROVAL_ROLE ( '' ) ;
#78 = CC_DESIGN_PERSON_AND_ORGANIZATION_ASSIGNMENT ( #32, #24, ( #150 ) ) ;
#79 = COORDINATED_UNIVERSAL_TIME_OFFSET ( 5, 0, .BEHIND. ) ;
#80 = ORIENTED_EDGE ( 'NONE', *, *, #51, .F. ) ;
#81 = APPROVAL_STATUS ( 'not_yet_approved' ) ;
#82 = APPLICATION_CONTEXT ( 'configuration controlled 3d designs of mechanical parts and assemblies' ) ;
#83 = ORIENTED_EDGE ( 'NONE', *, *, #162, .T. ) ;
#84 = LOCAL_TIME ( 13, 46, 51.00000000000000000, #110 ) ;
#85 = PRODUCT_RELATED_PRODUCT_CATEGORY ( 'detail', '', ( #150 ) ) ;
#86 = CALENDAR_DATE ( 2017, 31, 1 ) ;
#87 = ORGANIZATION ( 'UNSPECIFIED', 'UNSPECIFIED', '' ) ;
#88 = AXIS2_PLACEMENT_3D ( 'NONE', #148, #165, #90 ) ;
#89 = DIRECTION ( 'NONE',  ( 1.000000000000000000, 0.0000000000000000000, 0.0000000000000000000 ) ) ;
#90 = DIRECTION ( 'NONE',  ( 1.000000000000000000, 0.0000000000000000000, 0.0000000000000000000 ) ) ;
#91 = LOCAL_TIME ( 13, 46, 51.00000000000000000, #79 ) ;
#92 = PERSON_AND_ORGANIZATION_ROLE ( 'creator' ) ;
#93 = CIRCLE ( 'NONE', #67, 10.00000000000000000 ) ;
#94 = CARTESIAN_POINT ( 'NONE',  ( 10.00000000000000000, 1.224646799147353300E-015, 0.0000000000000000000 ) ) ;
#95 = APPROVAL_ROLE ( '' ) ;
#96 = PERSON_AND_ORGANIZATION_ROLE ( 'classification_officer' ) ;
#97 = EDGE_LOOP ( 'NONE', ( #141, #111 ) ) ;
#98 = CC_DESIGN_PERSON_AND_ORGANIZATION_ASSIGNMENT ( #7, #15, ( #140 ) ) ;
#99 = DIRECTION ( 'NONE',  ( -1.000000000000000000, 0.0000000000000000000, 0.0000000000000000000 ) ) ;
#100 = DATE_AND_TIME ( #119, #36 ) ;
#101 = LINE ( 'NONE', #29, #57 ) ;
#102 = DIRECTION ( 'NONE',  ( -0.0000000000000000000, -0.0000000000000000000, -1.000000000000000000 ) ) ;
#103 = UNCERTAINTY_MEASURE_WITH_UNIT (LENGTH_MEASURE( 1.000000000000000100E-005 ), #23, 'distance_accuracy_value', 'NONE');
#104 = CARTESIAN_POINT ( 'NONE',  ( 0.0000000000000000000, 0.0000000000000000000, 1.600000000000000100 ) ) ;
#105 = PERSON_AND_ORGANIZATION ( #61, #87 ) ;
#106 = FACE_OUTER_BOUND ( 'NONE', #169, .T. ) ;
#107 = CARTESIAN_POINT ( 'NONE',  ( -10.00000000000000000, 0.0000000000000000000, 1.600000000000000100 ) ) ;
#108 = DATE_AND_TIME ( #26, #84 ) ;
#109 = PERSON_AND_ORGANIZATION_ROLE ( 'design_supplier' ) ;
#110 = COORDINATED_UNIVERSAL_TIME_OFFSET ( 5, 0, .BEHIND. ) ;
#111 = ORIENTED_EDGE ( 'NONE', *, *, #19, .F. ) ;
#112 = AXIS2_PLACEMENT_3D ( 'NONE', #104, #10, #154 ) ;
#113 = ORIENTED_EDGE ( 'NONE', *, *, #43, .T. ) ;
#114 = DATE_AND_TIME ( #14, #49 ) ;
#115 = DIRECTION ( 'NONE',  ( -0.0000000000000000000, -0.0000000000000000000, -1.000000000000000000 ) ) ;
#116 = PLANE ( 'NONE',  #130 ) ;
#117 = APPROVAL ( #159, 'UNSPECIFIED' ) ;
#118 = CARTESIAN_POINT ( 'NONE',  ( 10.00000000000000000, 1.224646799147353300E-015, 1.600000000000000100 ) ) ;
#119 = CALENDAR_DATE ( 2017, 31, 1 ) ;
#120 = PERSON_AND_ORGANIZATION ( #61, #87 ) ;
#121 = EDGE_LOOP ( 'NONE', ( #137, #161, #45, #131 ) ) ;
#122 = DIRECTION ( 'NONE',  ( -1.000000000000000000, 0.0000000000000000000, 0.0000000000000000000 ) ) ;
#123 = ORIENTED_EDGE ( 'NONE', *, *, #162, .F. ) ;
#124 = MECHANICAL_CONTEXT ( 'NONE', #82, 'mechanical' ) ;
#125 = ADVANCED_FACE ( 'NONE', ( #17 ), #155, .T. ) ;
#126 =( NAMED_UNIT ( * ) SI_UNIT ( $, .STERADIAN. ) SOLID_ANGLE_UNIT ( ) );
#127 = DIRECTION ( 'NONE',  ( 1.000000000000000000, 0.0000000000000000000, 0.0000000000000000000 ) ) ;
#128 =( GEOMETRIC_REPRESENTATION_CONTEXT ( 3 ) GLOBAL_UNCERTAINTY_ASSIGNED_CONTEXT ( ( #103 ) ) GLOBAL_UNIT_ASSIGNED_CONTEXT ( ( #23, #38, #126 ) ) REPRESENTATION_CONTEXT ( 'NONE', 'WORKASPACE' ) );
#129 = EDGE_LOOP ( 'NONE', ( #113, #83 ) ) ;
#130 = AXIS2_PLACEMENT_3D ( 'NONE', #13, #63, #35 ) ;
#131 = ORIENTED_EDGE ( 'NONE', *, *, #30, .T. ) ;
#132 = APPROVAL_DATE_TIME ( #40, #117 ) ;
#133 = FACE_OUTER_BOUND ( 'NONE', #121, .T. ) ;
#134 = CARTESIAN_POINT ( 'NONE',  ( 0.0000000000000000000, 0.0000000000000000000, 1.600000000000000100 ) ) ;
#135 = AXIS2_PLACEMENT_3D ( 'NONE', #172, #156, #127 ) ;
#136 = DIRECTION ( 'NONE',  ( 0.0000000000000000000, 0.0000000000000000000, 1.000000000000000000 ) ) ;
#137 = ORIENTED_EDGE ( 'NONE', *, *, #56, .F. ) ;
#138 = CC_DESIGN_APPROVAL ( #117, ( #140 ) ) ;
#139 = DIRECTION ( 'NONE',  ( 1.000000000000000000, 0.0000000000000000000, 0.0000000000000000000 ) ) ;
#140 = PRODUCT_DEFINITION_FORMATION_WITH_SPECIFIED_SOURCE ( 'ANY', '', #150, .NOT_KNOWN. ) ;
#141 = ORIENTED_EDGE ( 'NONE', *, *, #30, .F. ) ;
#142 = APPROVAL ( #81, 'UNSPECIFIED' ) ;
#143 = APPROVAL_ROLE ( '' ) ;
#144 = COORDINATED_UNIVERSAL_TIME_OFFSET ( 5, 0, .BEHIND. ) ;
#145 = CIRCLE ( 'NONE', #60, 10.00000000000000000 ) ;
#146 = CC_DESIGN_PERSON_AND_ORGANIZATION_ASSIGNMENT ( #44, #109, ( #140 ) ) ;
#147 = PRODUCT_DEFINITION_SHAPE ( 'NONE', 'NONE',  #152 ) ;
#148 = CARTESIAN_POINT ( 'NONE',  ( 0.0000000000000000000, 0.0000000000000000000, 1.600000000000000100 ) ) ;
#149 = CARTESIAN_POINT ( 'NONE',  ( 0.0000000000000000000, 0.0000000000000000000, 0.0000000000000000000 ) ) ;
#150 = PRODUCT ( 'Web Model 63226', 'Web Model 63226', '', ( #124 ) ) ;
#151 = COORDINATED_UNIVERSAL_TIME_OFFSET ( 5, 0, .BEHIND. ) ;
#152 = PRODUCT_DEFINITION ( 'UNKNOWN', '', #140, #39 ) ;
#153 = COORDINATED_UNIVERSAL_TIME_OFFSET ( 5, 0, .BEHIND. ) ;
#154 = DIRECTION ( 'NONE',  ( 1.000000000000000000, 0.0000000000000000000, -0.0000000000000000000 ) ) ;
#155 = PLANE ( 'NONE',  #112 ) ;
#156 = DIRECTION ( 'NONE',  ( 0.0000000000000000000, 0.0000000000000000000, 1.000000000000000000 ) ) ;
#157 = CC_DESIGN_DATE_AND_TIME_ASSIGNMENT ( #108, #68, ( #152 ) ) ;
#158 = VERTEX_POINT ( 'NONE', #94 ) ;
#159 = APPROVAL_STATUS ( 'not_yet_approved' ) ;
#160 = SECURITY_CLASSIFICATION_LEVEL ( 'unclassified' ) ;
#161 = ORIENTED_EDGE ( 'NONE', *, *, #43, .F. ) ;
#162 = EDGE_CURVE ( 'NONE', #163, #47, #72, .T. ) ;
#163 = VERTEX_POINT ( 'NONE', #118 ) ;
#164 = SHAPE_DEFINITION_REPRESENTATION ( #147, #18 ) ;
#165 = DIRECTION ( 'NONE',  ( 0.0000000000000000000, 0.0000000000000000000, 1.000000000000000000 ) ) ;
#166 = ADVANCED_FACE ( 'NONE', ( #69 ), #116, .F. ) ;
#167 = DIRECTION ( 'NONE',  ( 0.0000000000000000000, 0.0000000000000000000, 1.000000000000000000 ) ) ;
#168 = APPROVAL ( #46, 'UNSPECIFIED' ) ;
#169 = EDGE_LOOP ( 'NONE', ( #123, #11, #5, #80 ) ) ;
#170 = CARTESIAN_POINT ( 'NONE',  ( -10.00000000000000000, 0.0000000000000000000, 1.600000000000000100 ) ) ;
#171 = APPLICATION_CONTEXT ( 'configuration controlled 3d designs of mechanical parts and assemblies' ) ;
#172 = CARTESIAN_POINT ( 'NONE',  ( 0.0000000000000000000, 0.0000000000000000000, 1.600000000000000100 ) ) ;
#173 = CC_DESIGN_SECURITY_CLASSIFICATION ( #34, ( #140 ) ) ;
#174 = CYLINDRICAL_SURFACE ( 'NONE', #55, 10.00000000000000000 ) ;
#175 = DIRECTION ( 'NONE',  ( -0.0000000000000000000, -0.0000000000000000000, -1.000000000000000000 ) ) ;
ENDSEC;
END-ISO-10303-21;
