ISO-10303-21;
HEADER;
FILE_DESCRIPTION (( 'STEP AP203' ),
    '1' );
FILE_NAME ('Web Model 11543_11543.step',
    '2019-12-17T13:44:36',
    ( '' ),
    ( '' ),
    'SwSTEP 2.0',
    'SolidWorks 2018',
    '' );
FILE_SCHEMA (( 'CONFIG_CONTROL_DESIGN' ));
ENDSEC;

DATA;
#1 = CC_DESIGN_PERSON_AND_ORGANIZATION_ASSIGNMENT ( #299, #230, ( #267 ) ) ;
#2 = DATE_TIME_ROLE ( 'creation_date' ) ;
#3 = ORIENTED_EDGE ( 'NONE', *, *, #95, .T. ) ;
#4 = PERSON_AND_ORGANIZATION_ROLE ( 'creator' ) ;
#5 = CC_DESIGN_PERSON_AND_ORGANIZATION_ASSIGNMENT ( #73, #99, ( #282 ) ) ;
#6 = CIRCLE ( 'NONE', #210, 15.00000000000000000 ) ;
#7 = ORIENTED_EDGE ( 'NONE', *, *, #119, .T. ) ;
#8 = CARTESIAN_POINT ( 'NONE',  ( -13.41108606915000045, 0.6910218778062999778, -61.66786034739000399 ) ) ;
#9 = CARTESIAN_POINT ( 'NONE',  ( 8.536359726738000475, 15.00000000000000000, 0.0000000000000000000 ) ) ;
#10 = AXIS2_PLACEMENT_3D ( 'NONE', #256, #133, #152 ) ;
#11 = CIRCLE ( 'NONE', #42, 15.00000000000000000 ) ;
#12 = DIRECTION ( 'NONE',  ( -0.2682217213829840019, 0.0000000000000000000, -0.9633572069478428812 ) ) ;
#13 = CARTESIAN_POINT ( 'NONE',  ( 4.536359726737999587, 0.0000000000000000000, -15.00000000000000000 ) ) ;
#14 = CONICAL_SURFACE ( 'NONE', #186, 49.30897812218999832, 0.7853981633972997312 ) ;
#15 = ORIENTED_EDGE ( 'NONE', *, *, #208, .T. ) ;
#16 = DIRECTION ( 'NONE',  ( 0.0000000000000000000, 1.000000000000000000, 0.0000000000000000000 ) ) ;
#17 = DIRECTION ( 'NONE',  ( -0.5000000000000169864, -0.8660254037844288266, 0.0000000000000000000 ) ) ;
#18 = AXIS2_PLACEMENT_3D ( 'NONE', #223, #98, #148 ) ;
#19 =( LENGTH_UNIT ( ) NAMED_UNIT ( * ) SI_UNIT ( .MILLI., .METRE. ) );
#20 = FACE_OUTER_BOUND ( 'NONE', #259, .T. ) ;
#21 = CARTESIAN_POINT ( 'NONE',  ( 0.0000000000000000000, -0.4676483514465999969, -13.98555442113000069 ) ) ;
#22 = APPROVAL ( #173, 'UNSPECIFIED' ) ;
#23 = ORIENTED_EDGE ( 'NONE', *, *, #95, .F. ) ;
#24 = EDGE_CURVE ( 'NONE', #93, #172, #6, .T. ) ;
#25 = SECURITY_CLASSIFICATION_LEVEL ( 'unclassified' ) ;
#26 = CIRCLE ( 'NONE', #220, 15.00000000000000533 ) ;
#27 = CARTESIAN_POINT ( 'NONE',  ( 0.0000000000000000000, -1.231450182902999790, -14.77952395701999855 ) ) ;
#28 = DATE_TIME_ROLE ( 'classification_date' ) ;
#29 = CIRCLE ( 'NONE', #245, 109.7719999999999914 ) ;
#30 = ORIENTED_EDGE ( 'NONE', *, *, #208, .F. ) ;
#31 = APPLICATION_CONTEXT ( 'configuration controlled 3d designs of mechanical parts and assemblies' ) ;
#32 = CALENDAR_DATE ( 2019, 17, 12 ) ;
#33 = CC_DESIGN_APPROVAL ( #70, ( #72 ) ) ;
#34 = DIRECTION ( 'NONE',  ( -1.000000000000000000, 0.0000000000000000000, 0.0000000000000000000 ) ) ;
#35 = MECHANICAL_CONTEXT ( 'NONE', #31, 'mechanical' ) ;
#36 = DESIGN_CONTEXT ( 'detailed design', #138, 'design' ) ;
#37 = DIRECTION ( 'NONE',  ( 0.0000000000000000000, 0.0000000000000000000, -1.000000000000000000 ) ) ;
#38 = ORIENTED_EDGE ( 'NONE', *, *, #137, .T. ) ;
#39 = DIRECTION ( 'NONE',  ( -1.000000000000000000, 0.0000000000000000000, 0.0000000000000000000 ) ) ;
#40 = VERTEX_POINT ( 'NONE', #207 ) ;
#41 = CC_DESIGN_APPROVAL ( #22, ( #282 ) ) ;
#42 = AXIS2_PLACEMENT_3D ( 'NONE', #131, #34, #264 ) ;
#43 = PERSON_AND_ORGANIZATION ( #68, #236 ) ;
#44 = VERTEX_POINT ( 'NONE', #128 ) ;
#45 = CARTESIAN_POINT ( 'NONE',  ( 8.936359726738000830, 14.30717967696999970, 0.0000000000000000000 ) ) ;
#46 = B_SPLINE_CURVE_WITH_KNOTS ( 'NONE', 3,
 ( #107, #135, #87, #86, #308, #13 ),
 .UNSPECIFIED., .F., .F.,
 ( 4, 1, 1, 4 ),
 ( 0.0000000000000000000, 0.3333333333333000081, 0.6666666666667000474, 1.000000000000000000 ),
 .UNSPECIFIED. ) ;
#47 = SPHERICAL_SURFACE ( 'NONE', #53, 109.7719999999999914 ) ;
#48 = COORDINATED_UNIVERSAL_TIME_OFFSET ( 5, 0, .BEHIND. ) ;
#49 = PRODUCT_RELATED_PRODUCT_CATEGORY ( 'detail', '', ( #267 ) ) ;
#50 = APPROVAL_ROLE ( '' ) ;
#51 = CIRCLE ( 'NONE', #91, 50.00000000000000711 ) ;
#52 = ORIENTED_EDGE ( 'NONE', *, *, #225, .T. ) ;
#53 = AXIS2_PLACEMENT_3D ( 'NONE', #312, #244, #111 ) ;
#54 = PERSON_AND_ORGANIZATION ( #68, #236 ) ;
#55 = EDGE_LOOP ( 'NONE', ( #262, #23, #65, #175 ) ) ;
#56 = CARTESIAN_POINT ( 'NONE',  ( 117.7720000000000056, 0.0000000000000000000, 0.0000000000000000000 ) ) ;
#57 = DIRECTION ( 'NONE',  ( 0.0000000000000000000, 1.000000000000000000, 0.0000000000000000000 ) ) ;
#58 = DIRECTION ( 'NONE',  ( 0.0000000000000000000, -1.000000000000000000, 0.0000000000000000000 ) ) ;
#59 = COORDINATED_UNIVERSAL_TIME_OFFSET ( 5, 0, .BEHIND. ) ;
#60 = CC_DESIGN_SECURITY_CLASSIFICATION ( #282, ( #72 ) ) ;
#61 = DIRECTION ( 'NONE',  ( 0.0000000000000000000, 1.000000000000000000, 0.0000000000000000000 ) ) ;
#62 = CARTESIAN_POINT ( 'NONE',  ( 0.5282930230269999861, 1.248218451173999988, -14.94857897075000075 ) ) ;
#63 = ORIENTED_EDGE ( 'NONE', *, *, #174, .F. ) ;
#64 = DIRECTION ( 'NONE',  ( 0.0000000000000000000, -1.000000000000000000, 0.0000000000000000000 ) ) ;
#65 = ORIENTED_EDGE ( 'NONE', *, *, #24, .F. ) ;
#66 = ADVANCED_FACE ( 'NONE', ( #211 ), #14, .F. ) ;
#67 = DIRECTION ( 'NONE',  ( 1.000000000000000000, 0.0000000000000000000, 0.0000000000000000000 ) ) ;
#68 = PERSON ( 'UNSPECIFIED', 'UNSPECIFIED', 'UNSPECIFIED', ('UNSPECIFIED'), ('UNSPECIFIED'), ('UNSPECIFIED') ) ;
#69 = DIRECTION ( 'NONE',  ( 0.0000000000000000000, -0.09213625037417015606, -0.9957464091660026551 ) ) ;
#70 = APPROVAL ( #94, 'UNSPECIFIED' ) ;
#71 = CARTESIAN_POINT ( 'NONE',  ( 0.0000000000000000000, 1.382043755613000080, -14.93619613748999875 ) ) ;
#72 = PRODUCT_DEFINITION_FORMATION_WITH_SPECIFIED_SOURCE ( 'ANY', '', #267, .NOT_KNOWN. ) ;
#73 = PERSON_AND_ORGANIZATION ( #68, #236 ) ;
#74 = ADVANCED_BREP_SHAPE_REPRESENTATION ( 'Web Model 11543_11543', ( #120, #18 ), #219 ) ;
#75 = CARTESIAN_POINT ( 'NONE',  ( 0.0000000000000000000, 0.0000000000000000000, -13.50000000000000000 ) ) ;
#76 = PERSON_AND_ORGANIZATION ( #68, #236 ) ;
#77 = APPROVAL ( #123, 'UNSPECIFIED' ) ;
#78 = CONICAL_SURFACE ( 'NONE', #302, 49.30897812219000542, 0.7853981633972997312 ) ;
#79 = EDGE_CURVE ( 'NONE', #93, #122, #320, .T. ) ;
#80 = VECTOR ( 'NONE', #81, 1000.000000000000000 ) ;
#81 = DIRECTION ( 'NONE',  ( -1.000000000000000000, 0.0000000000000000000, 0.0000000000000000000 ) ) ;
#82 = ADVANCED_FACE ( 'NONE', ( #255 ), #266, .F. ) ;
#83 = DIRECTION ( 'NONE',  ( 1.000000000000000000, 0.0000000000000000000, 0.0000000000000000000 ) ) ;
#84 = VERTEX_POINT ( 'NONE', #275 ) ;
#85 = DIRECTION ( 'NONE',  ( 0.0000000000000000000, 1.000000000000000000, 0.0000000000000000000 ) ) ;
#86 = CARTESIAN_POINT ( 'NONE',  ( 3.081984972768999853, -0.5045298245260000369, -14.99408343596999948 ) ) ;
#87 = CARTESIAN_POINT ( 'NONE',  ( 1.568571524218999924, -0.9667067725150999546, -14.97100505160999973 ) ) ;
#88 = CARTESIAN_POINT ( 'NONE',  ( 0.0000000000000000000, 1.382043755613000080, -14.93619613748999875 ) ) ;
#89 = EDGE_LOOP ( 'NONE', ( #7, #63 ) ) ;
#90 = ADVANCED_FACE ( 'NONE', ( #274 ), #78, .F. ) ;
#91 = AXIS2_PLACEMENT_3D ( 'NONE', #263, #16, #242 ) ;
#92 = PERSON_AND_ORGANIZATION ( #68, #236 ) ;
#93 = VERTEX_POINT ( 'NONE', #9 ) ;
#94 = APPROVAL_STATUS ( 'not_yet_approved' ) ;
#95 = EDGE_CURVE ( 'NONE', #172, #44, #150, .T. ) ;
#96 = LOCAL_TIME ( 8, 44, 36.00000000000000000, #48 ) ;
#97 = ORIENTED_EDGE ( 'NONE', *, *, #297, .F. ) ;
#98 = DIRECTION ( 'NONE',  ( 0.0000000000000000000, 0.0000000000000000000, 1.000000000000000000 ) ) ;
#99 = PERSON_AND_ORGANIZATION_ROLE ( 'classification_officer' ) ;
#100 = FACE_OUTER_BOUND ( 'NONE', #228, .T. ) ;
#101 = LOCAL_TIME ( 8, 44, 36.00000000000000000, #224 ) ;
#102 = DIRECTION ( 'NONE',  ( -1.000000000000000000, 0.0000000000000000000, 0.0000000000000000000 ) ) ;
#103 = APPROVAL_DATE_TIME ( #241, #70 ) ;
#104 = ORIENTED_EDGE ( 'NONE', *, *, #180, .T. ) ;
#105 = DIRECTION ( 'NONE',  ( 0.0000000000000000000, -1.000000000000000000, 0.0000000000000000000 ) ) ;
#106 = VECTOR ( 'NONE', #115, 1000.000000000000114 ) ;
#107 = CARTESIAN_POINT ( 'NONE',  ( 0.0000000000000000000, -1.382043755613000080, -14.93619613748999875 ) ) ;
#108 = CARTESIAN_POINT ( 'NONE',  ( 8.936359726738000830, 0.0000000000000000000, 0.0000000000000000000 ) ) ;
#109 = DIRECTION ( 'NONE',  ( 1.000000000000000000, 0.0000000000000000000, 0.0000000000000000000 ) ) ;
#110 = B_SPLINE_CURVE_WITH_KNOTS ( 'NONE', 3,
 ( #75, #141, #21, #315, #27, #201 ),
 .UNSPECIFIED., .F., .F.,
 ( 4, 1, 1, 4 ),
 ( 0.0000000000000000000, 0.3333333333333000081, 0.6666666666667000474, 1.000000000000000000 ),
 .UNSPECIFIED. ) ;
#111 = DIRECTION ( 'NONE',  ( 0.0000000000000000000, -1.000000000000000000, 0.0000000000000000000 ) ) ;
#112 = DATE_AND_TIME ( #32, #163 ) ;
#113 = EDGE_CURVE ( 'NONE', #122, #44, #142, .T. ) ;
#114 = CARTESIAN_POINT ( 'NONE',  ( 0.0000000000000000000, 0.0000000000000000000, 0.0000000000000000000 ) ) ;
#115 = DIRECTION ( 'NONE',  ( -0.5000000000000169864, 0.8660254037844288266, 0.0000000000000000000 ) ) ;
#116 = ORIENTED_EDGE ( 'NONE', *, *, #130, .T. ) ;
#117 = ORIENTED_EDGE ( 'NONE', *, *, #137, .F. ) ;
#118 = SHAPE_DEFINITION_REPRESENTATION ( #169, #74 ) ;
#119 = EDGE_CURVE ( 'NONE', #197, #40, #29, .T. ) ;
#120 = MANIFOLD_SOLID_BREP ( 'Web Model 11543.stp', #168 ) ;
#121 = APPROVAL_PERSON_ORGANIZATION ( #295, #70, #202 ) ;
#122 = VERTEX_POINT ( 'NONE', #257 ) ;
#123 = APPROVAL_STATUS ( 'not_yet_approved' ) ;
#124 =( NAMED_UNIT ( * ) PLANE_ANGLE_UNIT ( ) SI_UNIT ( $, .RADIAN. ) );
#125 = VERTEX_POINT ( 'NONE', #301 ) ;
#126 = CIRCLE ( 'NONE', #261, 14.30717967696999970 ) ;
#127 = ORIENTED_EDGE ( 'NONE', *, *, #130, .F. ) ;
#128 = CARTESIAN_POINT ( 'NONE',  ( 0.0000000000000000000, -15.00000000000000000, 0.0000000000000000000 ) ) ;
#129 = CARTESIAN_POINT ( 'NONE',  ( 8.536359726738000475, 15.00000000000000000, 0.0000000000000000000 ) ) ;
#130 = EDGE_CURVE ( 'NONE', #122, #190, #11, .T. ) ;
#131 = CARTESIAN_POINT ( 'NONE',  ( 0.0000000000000000000, 0.0000000000000000000, 0.0000000000000000000 ) ) ;
#132 = ADVANCED_FACE ( 'NONE', ( #100 ), #279, .T. ) ;
#133 = DIRECTION ( 'NONE',  ( -1.000000000000000000, 0.0000000000000000000, 0.0000000000000000000 ) ) ;
#134 = APPROVAL_PERSON_ORGANIZATION ( #76, #77, #50 ) ;
#135 = CARTESIAN_POINT ( 'NONE',  ( 0.5282980987593000055, -1.248217165408000096, -14.94857908972000082 ) ) ;
#136 = CARTESIAN_POINT ( 'NONE',  ( 3.081975026444000232, 0.5045331013489000593, -14.99408333969999951 ) ) ;
#137 = EDGE_CURVE ( 'NONE', #84, #307, #51, .T. ) ;
#138 = APPLICATION_CONTEXT ( 'configuration controlled 3d designs of mechanical parts and assemblies' ) ;
#139 = ORIENTED_EDGE ( 'NONE', *, *, #119, .F. ) ;
#140 = DIRECTION ( 'NONE',  ( 1.000000000000000000, 0.0000000000000000000, 0.0000000000000000000 ) ) ;
#141 = CARTESIAN_POINT ( 'NONE',  ( 0.0000000000000000000, -0.1565467427801000011, -13.66250124217000028 ) ) ;
#142 = CIRCLE ( 'NONE', #192, 15.00000000000000000 ) ;
#143 =( NAMED_UNIT ( * ) SI_UNIT ( $, .STERADIAN. ) SOLID_ANGLE_UNIT ( ) );
#144 = LOCAL_TIME ( 8, 44, 36.00000000000000000, #281 ) ;
#145 = ORIENTED_EDGE ( 'NONE', *, *, #180, .F. ) ;
#146 = EDGE_CURVE ( 'NONE', #197, #40, #226, .T. ) ;
#147 = DIRECTION ( 'NONE',  ( 0.0000000000000000000, 1.000000000000000000, 0.0000000000000000000 ) ) ;
#148 = DIRECTION ( 'NONE',  ( 1.000000000000000000, 0.0000000000000000000, 0.0000000000000000000 ) ) ;
#149 = ADVANCED_FACE ( 'NONE', ( #306 ), #47, .F. ) ;
#150 = LINE ( 'NONE', #260, #80 ) ;
#151 = DIRECTION ( 'NONE',  ( 0.2682217213829839464, 0.0000000000000000000, 0.9633572069478428812 ) ) ;
#152 = DIRECTION ( 'NONE',  ( 0.0000000000000000000, 1.000000000000000000, 0.0000000000000000000 ) ) ;
#153 = CALENDAR_DATE ( 2019, 17, 12 ) ;
#154 = DIRECTION ( 'NONE',  ( -1.000000000000000000, 0.0000000000000000000, 0.0000000000000000000 ) ) ;
#155 = CC_DESIGN_PERSON_AND_ORGANIZATION_ASSIGNMENT ( #43, #4, ( #72 ) ) ;
#156 = CARTESIAN_POINT ( 'NONE',  ( 4.056992496572000562, 0.1720683475947999974, -15.00000000000000000 ) ) ;
#157 = CIRCLE ( 'NONE', #205, 15.00000000000000000 ) ;
#158 = ORIENTED_EDGE ( 'NONE', *, *, #265, .F. ) ;
#159 = CARTESIAN_POINT ( 'NONE',  ( -0.4468179863368999527, 0.0000000000000000000, 0.0000000000000000000 ) ) ;
#160 = DATE_AND_TIME ( #153, #101 ) ;
#161 = DIRECTION ( 'NONE',  ( -1.000000000000000000, 0.0000000000000000000, 0.0000000000000000000 ) ) ;
#162 = CARTESIAN_POINT ( 'NONE',  ( 8.536359726738000475, -15.00000000000000000, 0.0000000000000000000 ) ) ;
#163 = LOCAL_TIME ( 8, 44, 36.00000000000000000, #231 ) ;
#164 = EDGE_LOOP ( 'NONE', ( #38, #158, #97 ) ) ;
#165 = AXIS2_PLACEMENT_3D ( 'NONE', #114, #140, #291 ) ;
#166 = CARTESIAN_POINT ( 'NONE',  ( 0.0000000000000000000, 0.0000000000000000000, -13.50000000000000000 ) ) ;
#167 = ORIENTED_EDGE ( 'NONE', *, *, #79, .F. ) ;
#168 = CLOSED_SHELL ( 'NONE', ( #82, #149, #258, #132, #276, #188, #90, #277, #66 ) ) ;
#169 = PRODUCT_DEFINITION_SHAPE ( 'NONE', 'NONE',  #234 ) ;
#170 = AXIS2_PLACEMENT_3D ( 'NONE', #235, #37, #105 ) ;
#171 = APPROVAL_DATE_TIME ( #178, #77 ) ;
#172 = VERTEX_POINT ( 'NONE', #162 ) ;
#173 = APPROVAL_STATUS ( 'not_yet_approved' ) ;
#174 = EDGE_CURVE ( 'NONE', #197, #40, #126, .T. ) ;
#175 = ORIENTED_EDGE ( 'NONE', *, *, #79, .T. ) ;
#176 = ORIENTED_EDGE ( 'NONE', *, *, #265, .T. ) ;
#177 = DIRECTION ( 'NONE',  ( 1.000000000000000000, 0.0000000000000000000, 0.0000000000000000000 ) ) ;
#178 = DATE_AND_TIME ( #248, #316 ) ;
#179 = DIRECTION ( 'NONE',  ( 0.0000000000000000000, 1.000000000000000000, 0.0000000000000000000 ) ) ;
#180 = EDGE_CURVE ( 'NONE', #307, #190, #285, .T. ) ;
#181 = FACE_OUTER_BOUND ( 'NONE', #313, .T. ) ;
#182 = ORIENTED_EDGE ( 'NONE', *, *, #225, .F. ) ;
#183 = CARTESIAN_POINT ( 'NONE',  ( -0.4468179863368999527, 0.0000000000000000000, 0.0000000000000000000 ) ) ;
#184 = DATE_AND_TIME ( #309, #144 ) ;
#185 = CARTESIAN_POINT ( 'NONE',  ( 0.0000000000000000000, 0.0000000000000000000, 0.0000000000000000000 ) ) ;
#186 = AXIS2_PLACEMENT_3D ( 'NONE', #233, #57, #12 ) ;
#187 = CARTESIAN_POINT ( 'NONE',  ( 8.936359726738000830, 0.0000000000000000000, 0.0000000000000000000 ) ) ;
#188 = ADVANCED_FACE ( 'NONE', ( #20 ), #253, .T. ) ;
#189 = VECTOR ( 'NONE', #17, 1000.000000000000114 ) ;
#190 = VERTEX_POINT ( 'NONE', #290 ) ;
#191 = DIRECTION ( 'NONE',  ( 0.0000000000000000000, 1.000000000000000000, 0.0000000000000000000 ) ) ;
#192 = AXIS2_PLACEMENT_3D ( 'NONE', #206, #177, #147 ) ;
#193 = ORIENTED_EDGE ( 'NONE', *, *, #314, .F. ) ;
#194 = CARTESIAN_POINT ( 'NONE',  ( 0.0000000000000000000, 0.4676253002464999531, -13.98553047484000089 ) ) ;
#195 = B_SPLINE_CURVE_WITH_KNOTS ( 'NONE', 3,
 ( #166, #292, #194, #252, #271, #71 ),
 .UNSPECIFIED., .F., .F.,
 ( 4, 1, 1, 4 ),
 ( 0.0000000000000000000, 0.3333333333333000081, 0.6666666666667000474, 1.000000000000000000 ),
 .UNSPECIFIED. ) ;
#196 = VECTOR ( 'NONE', #154, 1000.000000000000000 ) ;
#197 = VERTEX_POINT ( 'NONE', #45 ) ;
#198 = APPLICATION_PROTOCOL_DEFINITION ( 'international standard', 'config_control_design', 1994, #138 ) ;
#199 = EDGE_CURVE ( 'NONE', #93, #172, #157, .T. ) ;
#200 = CARTESIAN_POINT ( 'NONE',  ( 8.936359726738000830, 14.30717967696999970, 0.0000000000000000000 ) ) ;
#201 = CARTESIAN_POINT ( 'NONE',  ( 0.0000000000000000000, -1.382043755613000080, -14.93619613748999875 ) ) ;
#202 = APPROVAL_ROLE ( '' ) ;
#203 = ORIENTED_EDGE ( 'NONE', *, *, #278, .T. ) ;
#204 = EDGE_LOOP ( 'NONE', ( #318, #139 ) ) ;
#205 = AXIS2_PLACEMENT_3D ( 'NONE', #240, #311, #85 ) ;
#206 = CARTESIAN_POINT ( 'NONE',  ( 0.0000000000000000000, 0.0000000000000000000, 0.0000000000000000000 ) ) ;
#207 = CARTESIAN_POINT ( 'NONE',  ( 8.936359726738000830, -14.30717967696999970, 0.0000000000000000000 ) ) ;
#208 = EDGE_CURVE ( 'NONE', #40, #172, #293, .T. ) ;
#209 = APPROVAL_PERSON_ORGANIZATION ( #92, #22, #251 ) ;
#210 = AXIS2_PLACEMENT_3D ( 'NONE', #304, #283, #179 ) ;
#211 = FACE_OUTER_BOUND ( 'NONE', #164, .T. ) ;
#212 = ORIENTED_EDGE ( 'NONE', *, *, #146, .F. ) ;
#213 = DIRECTION ( 'NONE',  ( 0.0000000000000000000, 1.000000000000000000, 0.0000000000000000000 ) ) ;
#214 = CARTESIAN_POINT ( 'NONE',  ( 4.536359726737999587, 0.0000000000000000000, -15.00000000000000000 ) ) ;
#215 = CARTESIAN_POINT ( 'NONE',  ( 8.936359726738000830, -14.30717967696999970, 0.0000000000000000000 ) ) ;
#216 = LINE ( 'NONE', #200, #106 ) ;
#217 = UNCERTAINTY_MEASURE_WITH_UNIT (LENGTH_MEASURE( 1.000000000000000082E-05 ), #19, 'distance_accuracy_value', 'NONE');
#218 = CYLINDRICAL_SURFACE ( 'NONE', #270, 15.00000000000000000 ) ;
#219 =( GEOMETRIC_REPRESENTATION_CONTEXT ( 3 ) GLOBAL_UNCERTAINTY_ASSIGNED_CONTEXT ( ( #217 ) ) GLOBAL_UNIT_ASSIGNED_CONTEXT ( ( #19, #124, #143 ) ) REPRESENTATION_CONTEXT ( 'NONE', 'WORKASPACE' ) );
#220 = AXIS2_PLACEMENT_3D ( 'NONE', #185, #284, #69 ) ;
#221 = CC_DESIGN_DATE_AND_TIME_ASSIGNMENT ( #160, #28, ( #282 ) ) ;
#222 = ORIENTED_EDGE ( 'NONE', *, *, #199, .T. ) ;
#223 = CARTESIAN_POINT ( 'NONE',  ( 0.0000000000000000000, 0.0000000000000000000, 0.0000000000000000000 ) ) ;
#224 = COORDINATED_UNIVERSAL_TIME_OFFSET ( 5, 0, .BEHIND. ) ;
#225 = EDGE_CURVE ( 'NONE', #125, #44, #26, .T. ) ;
#226 = CIRCLE ( 'NONE', #227, 14.30717967696999970 ) ;
#227 = AXIS2_PLACEMENT_3D ( 'NONE', #108, #109, #191 ) ;
#228 = EDGE_LOOP ( 'NONE', ( #296, #30, #212, #203 ) ) ;
#229 = APPLICATION_PROTOCOL_DEFINITION ( 'international standard', 'config_control_design', 1994, #31 ) ;
#230 = PERSON_AND_ORGANIZATION_ROLE ( 'design_owner' ) ;
#231 = COORDINATED_UNIVERSAL_TIME_OFFSET ( 5, 0, .BEHIND. ) ;
#232 = PERSON_AND_ORGANIZATION ( #68, #236 ) ;
#233 = CARTESIAN_POINT ( 'NONE',  ( -13.41108606915000045, -0.6910218778062999778, -61.66786034739000399 ) ) ;
#234 = PRODUCT_DEFINITION ( 'UNKNOWN', '', #72, #36 ) ;
#235 = CARTESIAN_POINT ( 'NONE',  ( 117.7720000000000056, 0.0000000000000000000, 0.0000000000000000000 ) ) ;
#236 = ORGANIZATION ( 'UNSPECIFIED', 'UNSPECIFIED', '' ) ;
#237 = ORIENTED_EDGE ( 'NONE', *, *, #199, .F. ) ;
#238 = CARTESIAN_POINT ( 'NONE',  ( 8.736359726737999765, 0.0000000000000000000, 0.0000000000000000000 ) ) ;
#239 = CC_DESIGN_APPROVAL ( #77, ( #234 ) ) ;
#240 = CARTESIAN_POINT ( 'NONE',  ( 8.536359726738000475, 0.0000000000000000000, 0.0000000000000000000 ) ) ;
#241 = DATE_AND_TIME ( #303, #96 ) ;
#242 = DIRECTION ( 'NONE',  ( 0.2682217213829840019, 0.0000000000000000000, 0.9633572069478428812 ) ) ;
#243 = ORIENTED_EDGE ( 'NONE', *, *, #174, .T. ) ;
#244 = DIRECTION ( 'NONE',  ( 0.0000000000000000000, 0.0000000000000000000, -1.000000000000000000 ) ) ;
#245 = AXIS2_PLACEMENT_3D ( 'NONE', #56, #280, #102 ) ;
#246 = FACE_OUTER_BOUND ( 'NONE', #55, .T. ) ;
#247 = CARTESIAN_POINT ( 'NONE',  ( 4.536359726737999587, 0.0000000000000000000, -15.00000000000000000 ) ) ;
#248 = CALENDAR_DATE ( 2019, 17, 12 ) ;
#249 = EDGE_LOOP ( 'NONE', ( #145, #117, #300 ) ) ;
#250 = PERSON_AND_ORGANIZATION_ROLE ( 'creator' ) ;
#251 = APPROVAL_ROLE ( '' ) ;
#252 = CARTESIAN_POINT ( 'NONE',  ( 0.0000000000000000000, 0.9282799391856999538, -14.46423636895999998 ) ) ;
#253 = CYLINDRICAL_SURFACE ( 'NONE', #289, 15.00000000000000000 ) ;
#254 = EDGE_LOOP ( 'NONE', ( #269, #52, #286, #116, #193 ) ) ;
#255 = FACE_OUTER_BOUND ( 'NONE', #204, .T. ) ;
#256 = CARTESIAN_POINT ( 'NONE',  ( 8.736359726737999765, 0.0000000000000000000, 0.0000000000000000000 ) ) ;
#257 = CARTESIAN_POINT ( 'NONE',  ( 0.0000000000000000000, 15.00000000000000000, 0.0000000000000000000 ) ) ;
#258 = ADVANCED_FACE ( 'NONE', ( #181 ), #268, .T. ) ;
#259 = EDGE_LOOP ( 'NONE', ( #127, #167, #222, #3, #182, #176, #104 ) ) ;
#260 = CARTESIAN_POINT ( 'NONE',  ( 8.536359726738000475, -15.00000000000000000, 0.0000000000000000000 ) ) ;
#261 = AXIS2_PLACEMENT_3D ( 'NONE', #187, #39, #213 ) ;
#262 = ORIENTED_EDGE ( 'NONE', *, *, #113, .T. ) ;
#263 = CARTESIAN_POINT ( 'NONE',  ( -13.41108606915000045, 0.0000000000000000000, -61.66786034739000399 ) ) ;
#264 = DIRECTION ( 'NONE',  ( 0.0000000000000000000, 1.000000000000000000, 0.0000000000000000000 ) ) ;
#265 = EDGE_CURVE ( 'NONE', #125, #307, #46, .T. ) ;
#266 = SPHERICAL_SURFACE ( 'NONE', #170, 109.7719999999999914 ) ;
#267 = PRODUCT ( 'Web Model 11543_11543', 'Web Model 11543_11543', '', ( #35 ) ) ;
#268 = CONICAL_SURFACE ( 'NONE', #321, 14.65358983848999941, 1.047197551196400456 ) ;
#269 = ORIENTED_EDGE ( 'NONE', *, *, #297, .T. ) ;
#270 = AXIS2_PLACEMENT_3D ( 'NONE', #183, #83, #287 ) ;
#271 = CARTESIAN_POINT ( 'NONE',  ( 0.0000000000000000000, 1.231447602040000033, -14.77952127198000021 ) ) ;
#272 = FACE_OUTER_BOUND ( 'NONE', #254, .T. ) ;
#273 = CC_DESIGN_DATE_AND_TIME_ASSIGNMENT ( #112, #2, ( #234 ) ) ;
#274 = FACE_OUTER_BOUND ( 'NONE', #249, .T. ) ;
#275 = CARTESIAN_POINT ( 'NONE',  ( 0.0000000000000000000, 0.0000000000000000000, -13.50000000000000000 ) ) ;
#276 = ADVANCED_FACE ( 'NONE', ( #246 ), #218, .T. ) ;
#277 = ADVANCED_FACE ( 'NONE', ( #272 ), #317, .F. ) ;
#278 = EDGE_CURVE ( 'NONE', #197, #93, #216, .T. ) ;
#279 = CONICAL_SURFACE ( 'NONE', #10, 14.65358983848999941, 1.047197551196400456 ) ;
#280 = DIRECTION ( 'NONE',  ( 0.0000000000000000000, 0.0000000000000000000, 1.000000000000000000 ) ) ;
#281 = COORDINATED_UNIVERSAL_TIME_OFFSET ( 5, 0, .BEHIND. ) ;
#282 = SECURITY_CLASSIFICATION ( '', '', #25 ) ;
#283 = DIRECTION ( 'NONE',  ( 1.000000000000000000, 0.0000000000000000000, 0.0000000000000000000 ) ) ;
#284 = DIRECTION ( 'NONE',  ( -1.000000000000000000, 0.0000000000000000000, 0.0000000000000000000 ) ) ;
#285 = B_SPLINE_CURVE_WITH_KNOTS ( 'NONE', 3,
 ( #214, #156, #136, #310, #62, #88 ),
 .UNSPECIFIED., .F., .F.,
 ( 4, 1, 1, 4 ),
 ( 0.0000000000000000000, 0.3333333333333000081, 0.6666666666667000474, 1.000000000000000000 ),
 .UNSPECIFIED. ) ;
#286 = ORIENTED_EDGE ( 'NONE', *, *, #113, .F. ) ;
#287 = DIRECTION ( 'NONE',  ( 0.0000000000000000000, -1.000000000000000000, 0.0000000000000000000 ) ) ;
#288 = CC_DESIGN_PERSON_AND_ORGANIZATION_ASSIGNMENT ( #232, #298, ( #72 ) ) ;
#289 = AXIS2_PLACEMENT_3D ( 'NONE', #159, #67, #64 ) ;
#290 = CARTESIAN_POINT ( 'NONE',  ( 0.0000000000000000000, 1.382043755613000080, -14.93619613748999875 ) ) ;
#291 = DIRECTION ( 'NONE',  ( 0.0000000000000000000, 1.000000000000000000, 0.0000000000000000000 ) ) ;
#292 = CARTESIAN_POINT ( 'NONE',  ( 0.0000000000000000000, 0.1565367753919000016, -13.66249089565000041 ) ) ;
#293 = LINE ( 'NONE', #215, #189 ) ;
#294 = ORIENTED_EDGE ( 'NONE', *, *, #278, .F. ) ;
#295 = PERSON_AND_ORGANIZATION ( #68, #236 ) ;
#296 = ORIENTED_EDGE ( 'NONE', *, *, #24, .T. ) ;
#297 = EDGE_CURVE ( 'NONE', #84, #125, #110, .T. ) ;
#298 = PERSON_AND_ORGANIZATION_ROLE ( 'design_supplier' ) ;
#299 = PERSON_AND_ORGANIZATION ( #68, #236 ) ;
#300 = ORIENTED_EDGE ( 'NONE', *, *, #314, .T. ) ;
#301 = CARTESIAN_POINT ( 'NONE',  ( 0.0000000000000000000, -1.382043755613000080, -14.93619613748999875 ) ) ;
#302 = AXIS2_PLACEMENT_3D ( 'NONE', #8, #58, #151 ) ;
#303 = CALENDAR_DATE ( 2019, 17, 12 ) ;
#304 = CARTESIAN_POINT ( 'NONE',  ( 8.536359726738000475, 0.0000000000000000000, 0.0000000000000000000 ) ) ;
#305 = CC_DESIGN_PERSON_AND_ORGANIZATION_ASSIGNMENT ( #54, #250, ( #234 ) ) ;
#306 = FACE_OUTER_BOUND ( 'NONE', #89, .T. ) ;
#307 = VERTEX_POINT ( 'NONE', #247 ) ;
#308 = CARTESIAN_POINT ( 'NONE',  ( 4.056996711913000375, -0.1720668345024999879, -15.00000000000000000 ) ) ;
#309 = CALENDAR_DATE ( 2019, 17, 12 ) ;
#310 = CARTESIAN_POINT ( 'NONE',  ( 1.568559786785000076, 0.9667101059604999991, -14.97100482091999929 ) ) ;
#311 = DIRECTION ( 'NONE',  ( -1.000000000000000000, 0.0000000000000000000, 0.0000000000000000000 ) ) ;
#312 = CARTESIAN_POINT ( 'NONE',  ( 117.7720000000000056, 0.0000000000000000000, 0.0000000000000000000 ) ) ;
#313 = EDGE_LOOP ( 'NONE', ( #243, #15, #237, #294 ) ) ;
#314 = EDGE_CURVE ( 'NONE', #84, #190, #195, .T. ) ;
#315 = CARTESIAN_POINT ( 'NONE',  ( 0.0000000000000000000, -0.9282861583027000041, -14.46424283821999879 ) ) ;
#316 = LOCAL_TIME ( 8, 44, 36.00000000000000000, #59 ) ;
#317 = PLANE ( 'NONE',  #165 ) ;
#318 = ORIENTED_EDGE ( 'NONE', *, *, #146, .T. ) ;
#319 = APPROVAL_DATE_TIME ( #184, #22 ) ;
#320 = LINE ( 'NONE', #129, #196 ) ;
#321 = AXIS2_PLACEMENT_3D ( 'NONE', #238, #161, #61 ) ;
ENDSEC;
END-ISO-10303-21;
