ISO-10303-21;
HEADER;
FILE_DESCRIPTION (( 'STEP AP203' ),
    '1' );
FILE_NAME ('20140-E0W.STEP',
    '2019-07-16T11:13:33',
    ( '' ),
    ( '' ),
    'SwSTEP 2.0',
    'SolidWorks 2018',
    '' );
FILE_SCHEMA (( 'CONFIG_CONTROL_DESIGN' ));
ENDSEC;

DATA;
#1 = CIRCLE ( 'NONE', #91, 1.269999999999999796 ) ;
#2 = EDGE_LOOP ( 'NONE', ( #165, #121, #80, #134 ) ) ;
#3 = APPROVAL_PERSON_ORGANIZATION ( #160, #92, #123 ) ;
#4 = CONICAL_SURFACE ( 'NONE', #38, 1.250000000000000666, 0.7853981633974567167 ) ;
#5 = CALENDAR_DATE ( 2019, 16, 7 ) ;
#6 = CARTESIAN_POINT ( 'NONE',  ( 0.0000000000000000000, 5.287482853898881090E-15, -43.27900000000000347 ) ) ;
#7 = DIRECTION ( 'NONE',  ( 0.0000000000000000000, 1.000000000000000000, 3.061515884555943146E-16 ) ) ;
#8 = CALENDAR_DATE ( 2019, 16, 7 ) ;
#9 = DIRECTION ( 'NONE',  ( -0.0000000000000000000, 3.061515884555943146E-16, -1.000000000000000000 ) ) ;
#10 = EDGE_CURVE ( 'NONE', #185, #230, #58, .T. ) ;
#11 = DIRECTION ( 'NONE',  ( -0.0000000000000000000, 3.061515884555460954E-16, -1.000000000000000000 ) ) ;
#12 = CC_DESIGN_APPROVAL ( #205, ( #117 ) ) ;
#13 = DIRECTION ( 'NONE',  ( 0.0000000000000000000, -3.061515884555941666E-16, 1.000000000000000000 ) ) ;
#14 = ADVANCED_FACE ( 'NONE', ( #257 ), #286, .T. ) ;
#15 = DIRECTION ( 'NONE',  ( 1.000000000000000000, 0.0000000000000000000, 0.0000000000000000000 ) ) ;
#16 = CARTESIAN_POINT ( 'NONE',  ( 1.555301434917137841E-16, -1.269999999999999796, 0.07040908059505152083 ) ) ;
#17 = EDGE_CURVE ( 'NONE', #292, #230, #223, .T. ) ;
#18 = ORIENTED_EDGE ( 'NONE', *, *, #300, .T. ) ;
#19 = COORDINATED_UNIVERSAL_TIME_OFFSET ( 5, 0, .BEHIND. ) ;
#20 = DIRECTION ( 'NONE',  ( 0.0000000000000000000, -3.061515884555941666E-16, 1.000000000000000000 ) ) ;
#21 = CIRCLE ( 'NONE', #87, 43.38800000000000523 ) ;
#22 = DATE_TIME_ROLE ( 'creation_date' ) ;
#23 = ADVANCED_FACE ( 'NONE', ( #159 ), #284, .T. ) ;
#24 = CIRCLE ( 'NONE', #162, 1.269999999999999796 ) ;
#25 = VECTOR ( 'NONE', #246, 99.99999999999998579 ) ;
#26 = ORIENTED_EDGE ( 'NONE', *, *, #136, .F. ) ;
#27 = EDGE_LOOP ( 'NONE', ( #46, #114, #259 ) ) ;
#28 = AXIS2_PLACEMENT_3D ( 'NONE', #57, #53, #52 ) ;
#29 = CIRCLE ( 'NONE', #133, 1.269999999999999796 ) ;
#30 = CLOSED_SHELL ( 'NONE', ( #99, #227, #179, #23, #152, #127, #104, #14, #131 ) ) ;
#31 = EDGE_CURVE ( 'NONE', #234, #141, #24, .T. ) ;
#32 = DIRECTION ( 'NONE',  ( 0.0000000000000000000, 1.000000000000000000, 3.073328992872296367E-16 ) ) ;
#33 = CARTESIAN_POINT ( 'NONE',  ( 0.0000000000000000000, 4.090185221766744820E-17, -0.1090000000000001940 ) ) ;
#34 = CARTESIAN_POINT ( 'NONE',  ( 0.0000000000000000000, -1.402452278986548533E-17, 0.07040908059505190941 ) ) ;
#35 = CIRCLE ( 'NONE', #158, 1.269999999999999796 ) ;
#36 = DIRECTION ( 'NONE',  ( 0.0000000000000000000, -3.061515884555460954E-16, 1.000000000000000000 ) ) ;
#37 = ADVANCED_BREP_SHAPE_REPRESENTATION ( '20140-E0W', ( #263, #283 ), #237 ) ;
#38 = AXIS2_PLACEMENT_3D ( 'NONE', #105, #226, #150 ) ;
#39 =( LENGTH_UNIT ( ) NAMED_UNIT ( * ) SI_UNIT ( .CENTI., .METRE. ) );
#40 = PERSON_AND_ORGANIZATION_ROLE ( 'classification_officer' ) ;
#41 = DIRECTION ( 'NONE',  ( -1.224646799147353207E-16, 1.000000000000000000, 0.0000000000000000000 ) ) ;
#42 = ORIENTED_EDGE ( 'NONE', *, *, #31, .T. ) ;
#43 = DATE_AND_TIME ( #8, #195 ) ;
#44 = ORIENTED_EDGE ( 'NONE', *, *, #136, .T. ) ;
#45 = EDGE_CURVE ( 'NONE', #230, #292, #90, .T. ) ;
#46 = ORIENTED_EDGE ( 'NONE', *, *, #10, .F. ) ;
#47 = CALENDAR_DATE ( 2019, 16, 7 ) ;
#48 = DIRECTION ( 'NONE',  ( 0.0000000000000000000, 0.0000000000000000000, 1.000000000000000000 ) ) ;
#49 = ORIENTED_EDGE ( 'NONE', *, *, #97, .T. ) ;
#50 = PERSON_AND_ORGANIZATION ( #238, #112 ) ;
#51 = CARTESIAN_POINT ( 'NONE',  ( 0.0000000000000000000, 4.090185221766745436E-17, -0.1090000000000001940 ) ) ;
#52 = DIRECTION ( 'NONE',  ( 0.0000000000000000000, 1.000000000000000000, 3.073328992872296367E-16 ) ) ;
#53 = DIRECTION ( 'NONE',  ( -0.0000000000000000000, 3.061515884555460954E-16, -1.000000000000000000 ) ) ;
#54 = VERTEX_POINT ( 'NONE', #214 ) ;
#55 = CARTESIAN_POINT ( 'NONE',  ( 0.0000000000000000000, -1.402452278986548533E-17, 0.07040908059505190941 ) ) ;
#56 = DIRECTION ( 'NONE',  ( -0.0000000000000000000, 3.061515884555460954E-16, -1.000000000000000000 ) ) ;
#57 = CARTESIAN_POINT ( 'NONE',  ( 0.0000000000000000000, -1.402452278986551307E-17, 0.07040908059505190941 ) ) ;
#58 = CIRCLE ( 'NONE', #197, 43.38800000000000523 ) ;
#59 = DATE_AND_TIME ( #186, #68 ) ;
#60 =( NAMED_UNIT ( * ) PLANE_ANGLE_UNIT ( ) SI_UNIT ( $, .RADIAN. ) );
#61 = DIRECTION ( 'NONE',  ( 0.0000000000000000000, 1.000000000000000000, 3.073328992872296367E-16 ) ) ;
#62 = CARTESIAN_POINT ( 'NONE',  ( 0.0000000000000000000, 1.269999999999999796, -0.08900000000000113376 ) ) ;
#63 = EDGE_CURVE ( 'NONE', #230, #234, #122, .T. ) ;
#64 = APPROVAL_DATE_TIME ( #119, #92 ) ;
#65 = VERTEX_POINT ( 'NONE', #290 ) ;
#66 = AXIS2_PLACEMENT_3D ( 'NONE', #171, #36, #295 ) ;
#67 = ORIENTED_EDGE ( 'NONE', *, *, #282, .F. ) ;
#68 = LOCAL_TIME ( 7, 13, 32.00000000000000000, #89 ) ;
#69 = VECTOR ( 'NONE', #102, 100.0000000000000142 ) ;
#70 = SECURITY_CLASSIFICATION ( '', '', #252 ) ;
#71 = FACE_OUTER_BOUND ( 'NONE', #82, .T. ) ;
#72 = FACE_OUTER_BOUND ( 'NONE', #274, .T. ) ;
#73 = CARTESIAN_POINT ( 'NONE',  ( 0.0000000000000000000, 4.090185221766739890E-17, -0.1089999999999999997 ) ) ;
#74 = CARTESIAN_POINT ( 'NONE',  ( 0.0000000000000000000, 3.477882044855597853E-17, -0.08900000000000152234 ) ) ;
#75 = DIRECTION ( 'NONE',  ( 0.0000000000000000000, 1.000000000000000000, 3.073328992872296367E-16 ) ) ;
#76 = CYLINDRICAL_SURFACE ( 'NONE', #85, 1.269999999999999796 ) ;
#77 = AXIS2_PLACEMENT_3D ( 'NONE', #33, #9, #201 ) ;
#78 = CIRCLE ( 'NONE', #77, 1.250000000000000666 ) ;
#79 = DIRECTION ( 'NONE',  ( 8.659560562355005581E-17, 0.7071067811865532349, 0.7071067811865419106 ) ) ;
#80 = ORIENTED_EDGE ( 'NONE', *, *, #107, .T. ) ;
#81 = APPLICATION_CONTEXT ( 'configuration controlled 3d designs of mechanical parts and assemblies' ) ;
#82 = EDGE_LOOP ( 'NONE', ( #231, #49, #151, #109 ) ) ;
#83 = CARTESIAN_POINT ( 'NONE',  ( 0.0000000000000000000, 5.287482853898881090E-15, -43.27900000000000347 ) ) ;
#84 = EDGE_CURVE ( 'NONE', #243, #65, #78, .T. ) ;
#85 = AXIS2_PLACEMENT_3D ( 'NONE', #73, #221, #203 ) ;
#86 = ORIENTED_EDGE ( 'NONE', *, *, #233, .T. ) ;
#87 = AXIS2_PLACEMENT_3D ( 'NONE', #83, #250, #41 ) ;
#88 = CIRCLE ( 'NONE', #256, 1.250000000000000666 ) ;
#89 = COORDINATED_UNIVERSAL_TIME_OFFSET ( 5, 0, .BEHIND. ) ;
#90 = CIRCLE ( 'NONE', #66, 1.250013176996506603 ) ;
#91 = AXIS2_PLACEMENT_3D ( 'NONE', #55, #196, #193 ) ;
#92 = APPROVAL ( #299, 'UNSPECIFIED' ) ;
#93 = DIRECTION ( 'NONE',  ( 0.0000000000000000000, -3.061515884555460954E-16, 1.000000000000000000 ) ) ;
#94 = LOCAL_TIME ( 7, 13, 32.00000000000000000, #241 ) ;
#95 = CARTESIAN_POINT ( 'NONE',  ( 0.0000000000000000000, 4.090185221766745436E-17, -0.1090000000000001940 ) ) ;
#96 = CARTESIAN_POINT ( 'NONE',  ( 0.0000000000000000000, 4.090185221766744820E-17, -0.1090000000000001940 ) ) ;
#97 = EDGE_CURVE ( 'NONE', #141, #234, #1, .T. ) ;
#98 = ORIENTED_EDGE ( 'NONE', *, *, #63, .T. ) ;
#99 = ADVANCED_FACE ( 'NONE', ( #72 ), #207, .T. ) ;
#100 = PLANE ( 'NONE',  #169 ) ;
#101 = APPROVAL_ROLE ( '' ) ;
#102 = DIRECTION ( 'NONE',  ( 8.531883335002426140E-17, -0.6966811443873168752, -0.7173809190765938482 ) ) ;
#103 = EDGE_LOOP ( 'NONE', ( #188, #113, #98, #111 ) ) ;
#104 = ADVANCED_FACE ( 'NONE', ( #71 ), #267, .T. ) ;
#105 = CARTESIAN_POINT ( 'NONE',  ( 0.0000000000000000000, 4.090185221766745436E-17, -0.1090000000000001940 ) ) ;
#106 =( NAMED_UNIT ( * ) SI_UNIT ( $, .STERADIAN. ) SOLID_ANGLE_UNIT ( ) );
#107 = EDGE_CURVE ( 'NONE', #65, #54, #140, .T. ) ;
#108 = PERSON_AND_ORGANIZATION_ROLE ( 'design_owner' ) ;
#109 = ORIENTED_EDGE ( 'NONE', *, *, #211, .T. ) ;
#110 = AXIS2_PLACEMENT_3D ( 'NONE', #6, #285, #138 ) ;
#111 = ORIENTED_EDGE ( 'NONE', *, *, #97, .F. ) ;
#112 = ORGANIZATION ( 'UNSPECIFIED', 'UNSPECIFIED', '' ) ;
#113 = ORIENTED_EDGE ( 'NONE', *, *, #45, .F. ) ;
#114 = ORIENTED_EDGE ( 'NONE', *, *, #282, .T. ) ;
#115 = EDGE_CURVE ( 'NONE', #65, #243, #88, .T. ) ;
#116 = ORIENTED_EDGE ( 'NONE', *, *, #154, .F. ) ;
#117 = PRODUCT_DEFINITION_FORMATION_WITH_SPECIFIED_SOURCE ( 'ANY', '', #258, .NOT_KNOWN. ) ;
#118 = CARTESIAN_POINT ( 'NONE',  ( 0.0000000000000000000, -1.250000000000000666, -0.1090000000000005964 ) ) ;
#119 = DATE_AND_TIME ( #281, #94 ) ;
#120 = DIRECTION ( 'NONE',  ( 0.0000000000000000000, 1.000000000000000000, 3.073328992872296367E-16 ) ) ;
#121 = ORIENTED_EDGE ( 'NONE', *, *, #115, .F. ) ;
#122 = LINE ( 'NONE', #170, #147 ) ;
#123 = APPROVAL_ROLE ( '' ) ;
#124 = CC_DESIGN_PERSON_AND_ORGANIZATION_ASSIGNMENT ( #254, #298, ( #117 ) ) ;
#125 = MECHANICAL_CONTEXT ( 'NONE', #255, 'mechanical' ) ;
#126 = PERSON_AND_ORGANIZATION_ROLE ( 'creator' ) ;
#127 = ADVANCED_FACE ( 'NONE', ( #293 ), #260, .T. ) ;
#128 = PERSON_AND_ORGANIZATION_ROLE ( 'creator' ) ;
#129 = ORIENTED_EDGE ( 'NONE', *, *, #10, .T. ) ;
#130 = DATE_TIME_ROLE ( 'classification_date' ) ;
#131 = ADVANCED_FACE ( 'NONE', ( #146 ), #261, .T. ) ;
#132 = VECTOR ( 'NONE', #79, 100.0000000000000000 ) ;
#133 = AXIS2_PLACEMENT_3D ( 'NONE', #174, #20, #61 ) ;
#134 = ORIENTED_EDGE ( 'NONE', *, *, #211, .F. ) ;
#135 = APPROVAL_PERSON_ORGANIZATION ( #244, #205, #101 ) ;
#136 = EDGE_CURVE ( 'NONE', #54, #210, #35, .T. ) ;
#137 = PRODUCT_DEFINITION ( 'UNKNOWN', '', #117, #268 ) ;
#138 = DIRECTION ( 'NONE',  ( 0.0000000000000000000, 1.000000000000000000, 2.558825077498747197E-16 ) ) ;
#139 = DIRECTION ( 'NONE',  ( 0.0000000000000000000, -1.000000000000000000, -3.122502256758251291E-16 ) ) ;
#140 = LINE ( 'NONE', #118, #25 ) ;
#141 = VERTEX_POINT ( 'NONE', #269 ) ;
#142 = DIRECTION ( 'NONE',  ( 0.0000000000000000000, 0.6966811443873172083, -0.7173809190765934041 ) ) ;
#143 = DIRECTION ( 'NONE',  ( 0.0000000000000000000, 1.000000000000000000, 3.122502256758251291E-16 ) ) ;
#144 = AXIS2_PLACEMENT_3D ( 'NONE', #239, #93, #262 ) ;
#145 = DIRECTION ( 'NONE',  ( -0.0000000000000000000, 3.061515884555943146E-16, -1.000000000000000000 ) ) ;
#146 = FACE_OUTER_BOUND ( 'NONE', #103, .T. ) ;
#147 = VECTOR ( 'NONE', #142, 100.0000000000000142 ) ;
#148 = CC_DESIGN_SECURITY_CLASSIFICATION ( #70, ( #117 ) ) ;
#149 = CARTESIAN_POINT ( 'NONE',  ( 0.0000000000000000000, 5.287482853898881090E-15, -43.27900000000000347 ) ) ;
#150 = DIRECTION ( 'NONE',  ( 0.0000000000000000000, -1.000000000000000000, -3.122502256758251291E-16 ) ) ;
#151 = ORIENTED_EDGE ( 'NONE', *, *, #154, .T. ) ;
#152 = ADVANCED_FACE ( 'NONE', ( #212 ), #100, .T. ) ;
#153 = AXIS2_PLACEMENT_3D ( 'NONE', #291, #11, #120 ) ;
#154 = EDGE_CURVE ( 'NONE', #234, #210, #200, .T. ) ;
#155 = ORIENTED_EDGE ( 'NONE', *, *, #115, .T. ) ;
#156 = DATE_AND_TIME ( #5, #249 ) ;
#157 = EDGE_CURVE ( 'NONE', #141, #54, #189, .T. ) ;
#158 = AXIS2_PLACEMENT_3D ( 'NONE', #74, #13, #75 ) ;
#159 = FACE_OUTER_BOUND ( 'NONE', #27, .T. ) ;
#160 = PERSON_AND_ORGANIZATION ( #238, #112 ) ;
#161 = LOCAL_TIME ( 7, 13, 32.00000000000000000, #209 ) ;
#162 = AXIS2_PLACEMENT_3D ( 'NONE', #34, #56, #265 ) ;
#163 = APPROVAL ( #225, 'UNSPECIFIED' ) ;
#164 = DIRECTION ( 'NONE',  ( -1.000000000000000000, 0.0000000000000000000, 0.0000000000000000000 ) ) ;
#165 = ORIENTED_EDGE ( 'NONE', *, *, #300, .F. ) ;
#166 = PERSON_AND_ORGANIZATION ( #238, #112 ) ;
#167 = CC_DESIGN_DATE_AND_TIME_ASSIGNMENT ( #59, #130, ( #70 ) ) ;
#168 = DIRECTION ( 'NONE',  ( -0.0000000000000000000, 3.061515884555943146E-16, -1.000000000000000000 ) ) ;
#169 = AXIS2_PLACEMENT_3D ( 'NONE', #95, #168, #7 ) ;
#170 = CARTESIAN_POINT ( 'NONE',  ( 0.0000000000000000000, 1.269999999999999796, 0.07040908059505229799 ) ) ;
#171 = CARTESIAN_POINT ( 'NONE',  ( 0.0000000000000000000, -7.990308399866376978E-15, 0.09098975163972511382 ) ) ;
#172 = CARTESIAN_POINT ( 'NONE',  ( 1.555301434917138334E-16, -1.269999999999999796, -0.1090000000000003882 ) ) ;
#173 = AXIS2_PLACEMENT_3D ( 'NONE', #51, #215, #139 ) ;
#174 = CARTESIAN_POINT ( 'NONE',  ( 0.0000000000000000000, 3.477882044855597853E-17, -0.08900000000000152234 ) ) ;
#175 = EDGE_LOOP ( 'NONE', ( #42, #208, #44, #116 ) ) ;
#176 = APPROVAL_DATE_TIME ( #156, #163 ) ;
#177 = PRODUCT_RELATED_PRODUCT_CATEGORY ( 'detail', '', ( #258 ) ) ;
#178 = CARTESIAN_POINT ( 'NONE',  ( 0.0000000000000000000, 1.269999999999999796, 0.07040908059505229799 ) ) ;
#179 = ADVANCED_FACE ( 'NONE', ( #279 ), #76, .T. ) ;
#180 = APPLICATION_PROTOCOL_DEFINITION ( 'international standard', 'config_control_design', 1994, #255 ) ;
#181 = PERSON_AND_ORGANIZATION ( #238, #112 ) ;
#182 = CARTESIAN_POINT ( 'NONE',  ( 1.530808498934192310E-16, 1.250000000000000666, -0.1089999999999998054 ) ) ;
#183 = EDGE_LOOP ( 'NONE', ( #155, #194 ) ) ;
#184 = LINE ( 'NONE', #182, #132 ) ;
#185 = VERTEX_POINT ( 'NONE', #247 ) ;
#186 = CALENDAR_DATE ( 2019, 16, 7 ) ;
#187 = UNCERTAINTY_MEASURE_WITH_UNIT (LENGTH_MEASURE( 1.000000000000000082E-05 ), #39, 'distance_accuracy_value', 'NONE');
#188 = ORIENTED_EDGE ( 'NONE', *, *, #233, .F. ) ;
#189 = LINE ( 'NONE', #172, #191 ) ;
#190 = CC_DESIGN_PERSON_AND_ORGANIZATION_ASSIGNMENT ( #50, #108, ( #258 ) ) ;
#191 = VECTOR ( 'NONE', #294, 100.0000000000000000 ) ;
#192 = AXIS2_PLACEMENT_3D ( 'NONE', #149, #242, #198 ) ;
#193 = DIRECTION ( 'NONE',  ( 0.0000000000000000000, -1.000000000000000000, -3.073328992872296367E-16 ) ) ;
#194 = ORIENTED_EDGE ( 'NONE', *, *, #84, .T. ) ;
#195 = LOCAL_TIME ( 7, 13, 32.00000000000000000, #19 ) ;
#196 = DIRECTION ( 'NONE',  ( -0.0000000000000000000, 3.061515884555460954E-16, -1.000000000000000000 ) ) ;
#197 = AXIS2_PLACEMENT_3D ( 'NONE', #288, #164, #48 ) ;
#198 = DIRECTION ( 'NONE',  ( 0.0000000000000000000, 1.000000000000000000, 2.558825077498747197E-16 ) ) ;
#199 = CC_DESIGN_DATE_AND_TIME_ASSIGNMENT ( #232, #22, ( #137 ) ) ;
#200 = LINE ( 'NONE', #289, #236 ) ;
#201 = DIRECTION ( 'NONE',  ( 0.0000000000000000000, 1.000000000000000000, 3.122502256758251291E-16 ) ) ;
#202 = AXIS2_PLACEMENT_3D ( 'NONE', #220, #217, #32 ) ;
#203 = DIRECTION ( 'NONE',  ( 0.0000000000000000000, 1.000000000000000000, 3.073328992872296367E-16 ) ) ;
#204 = CARTESIAN_POINT ( 'NONE',  ( 1.530824636100934376E-16, -1.250013176996635833, 0.09098975163972491953 ) ) ;
#205 = APPROVAL ( #222, 'UNSPECIFIED' ) ;
#206 = FACE_OUTER_BOUND ( 'NONE', #228, .T. ) ;
#207 = CONICAL_SURFACE ( 'NONE', #28, 1.269999999999999796, 0.7707606896576819633 ) ;
#208 = ORIENTED_EDGE ( 'NONE', *, *, #157, .T. ) ;
#209 = COORDINATED_UNIVERSAL_TIME_OFFSET ( 5, 0, .BEHIND. ) ;
#210 = VERTEX_POINT ( 'NONE', #62 ) ;
#211 = EDGE_CURVE ( 'NONE', #210, #54, #29, .T. ) ;
#212 = FACE_OUTER_BOUND ( 'NONE', #183, .T. ) ;
#213 = CC_DESIGN_APPROVAL ( #92, ( #70 ) ) ;
#214 = CARTESIAN_POINT ( 'NONE',  ( 1.555301434917138334E-16, -1.269999999999999796, -0.08900000000000191092 ) ) ;
#215 = DIRECTION ( 'NONE',  ( 0.0000000000000000000, -3.061515884555941666E-16, 1.000000000000000000 ) ) ;
#216 = ORIENTED_EDGE ( 'NONE', *, *, #63, .F. ) ;
#217 = DIRECTION ( 'NONE',  ( -0.0000000000000000000, 3.061515884555943146E-16, -1.000000000000000000 ) ) ;
#218 = DIRECTION ( 'NONE',  ( -0.0000000000000000000, 3.061515884555943146E-16, -1.000000000000000000 ) ) ;
#219 = ORIENTED_EDGE ( 'NONE', *, *, #45, .T. ) ;
#220 = CARTESIAN_POINT ( 'NONE',  ( 0.0000000000000000000, 4.090185221766739890E-17, -0.1089999999999999997 ) ) ;
#221 = DIRECTION ( 'NONE',  ( -0.0000000000000000000, 3.061515884555943146E-16, -1.000000000000000000 ) ) ;
#222 = APPROVAL_STATUS ( 'not_yet_approved' ) ;
#223 = CIRCLE ( 'NONE', #144, 1.250013176996506603 ) ;
#224 = COORDINATED_UNIVERSAL_TIME_OFFSET ( 5, 0, .BEHIND. ) ;
#225 = APPROVAL_STATUS ( 'not_yet_approved' ) ;
#226 = DIRECTION ( 'NONE',  ( 0.0000000000000000000, -3.061515884555941666E-16, 1.000000000000000000 ) ) ;
#227 = ADVANCED_FACE ( 'NONE', ( #206 ), #4, .T. ) ;
#228 = EDGE_LOOP ( 'NONE', ( #248, #18, #26, #264 ) ) ;
#229 = PERSON_AND_ORGANIZATION ( #238, #112 ) ;
#230 = VERTEX_POINT ( 'NONE', #273 ) ;
#231 = ORIENTED_EDGE ( 'NONE', *, *, #157, .F. ) ;
#232 = DATE_AND_TIME ( #47, #161 ) ;
#233 = EDGE_CURVE ( 'NONE', #292, #141, #245, .T. ) ;
#234 = VERTEX_POINT ( 'NONE', #178 ) ;
#235 = PERSON_AND_ORGANIZATION ( #238, #112 ) ;
#236 = VECTOR ( 'NONE', #145, 100.0000000000000000 ) ;
#237 =( GEOMETRIC_REPRESENTATION_CONTEXT ( 3 ) GLOBAL_UNCERTAINTY_ASSIGNED_CONTEXT ( ( #187 ) ) GLOBAL_UNIT_ASSIGNED_CONTEXT ( ( #39, #60, #106 ) ) REPRESENTATION_CONTEXT ( 'NONE', 'WORKASPACE' ) );
#238 = PERSON ( 'UNSPECIFIED', 'UNSPECIFIED', 'UNSPECIFIED', ('UNSPECIFIED'), ('UNSPECIFIED'), ('UNSPECIFIED') ) ;
#239 = CARTESIAN_POINT ( 'NONE',  ( 0.0000000000000000000, -7.990308399866376978E-15, 0.09098975163972511382 ) ) ;
#240 = ORIENTED_EDGE ( 'NONE', *, *, #17, .F. ) ;
#241 = COORDINATED_UNIVERSAL_TIME_OFFSET ( 5, 0, .BEHIND. ) ;
#242 = DIRECTION ( 'NONE',  ( 1.000000000000000000, 0.0000000000000000000, -0.0000000000000000000 ) ) ;
#243 = VERTEX_POINT ( 'NONE', #251 ) ;
#244 = PERSON_AND_ORGANIZATION ( #238, #112 ) ;
#245 = LINE ( 'NONE', #16, #69 ) ;
#246 = DIRECTION ( 'NONE',  ( 0.0000000000000000000, -0.7071067811865537900, 0.7071067811865413555 ) ) ;
#247 = CARTESIAN_POINT ( 'NONE',  ( 0.0000000000000000000, -5.339073499942178429E-15, 0.1090000000000035385 ) ) ;
#248 = ORIENTED_EDGE ( 'NONE', *, *, #84, .F. ) ;
#249 = LOCAL_TIME ( 7, 13, 32.00000000000000000, #224 ) ;
#250 = DIRECTION ( 'NONE',  ( 1.000000000000000000, 1.224646799147353207E-16, 3.749275628560213616E-32 ) ) ;
#251 = CARTESIAN_POINT ( 'NONE',  ( 1.543054966925665322E-16, 1.250000000000000666, -0.1089999999999998054 ) ) ;
#252 = SECURITY_CLASSIFICATION_LEVEL ( 'unclassified' ) ;
#253 = ORIENTED_EDGE ( 'NONE', *, *, #31, .F. ) ;
#254 = PERSON_AND_ORGANIZATION ( #238, #112 ) ;
#255 = APPLICATION_CONTEXT ( 'configuration controlled 3d designs of mechanical parts and assemblies' ) ;
#256 = AXIS2_PLACEMENT_3D ( 'NONE', #96, #218, #143 ) ;
#257 = FACE_OUTER_BOUND ( 'NONE', #2, .T. ) ;
#258 = PRODUCT ( '20140-E0W', '20140-E0W', '', ( #125 ) ) ;
#259 = ORIENTED_EDGE ( 'NONE', *, *, #17, .T. ) ;
#260 = SPHERICAL_SURFACE ( 'NONE', #192, 43.38800000000000523 ) ;
#261 = CONICAL_SURFACE ( 'NONE', #153, 1.269999999999999796, 0.7707606896576819633 ) ;
#262 = DIRECTION ( 'NONE',  ( 0.0000000000000000000, 1.000000000000000000, 3.035734081473503012E-16 ) ) ;
#263 = MANIFOLD_SOLID_BREP ( '20140-001-1-solid1', #30 ) ;
#264 = ORIENTED_EDGE ( 'NONE', *, *, #107, .F. ) ;
#265 = DIRECTION ( 'NONE',  ( 0.0000000000000000000, -1.000000000000000000, -3.073328992872296367E-16 ) ) ;
#266 = CC_DESIGN_APPROVAL ( #163, ( #137 ) ) ;
#267 = CYLINDRICAL_SURFACE ( 'NONE', #202, 1.269999999999999796 ) ;
#268 = DESIGN_CONTEXT ( 'detailed design', #81, 'design' ) ;
#269 = CARTESIAN_POINT ( 'NONE',  ( 1.555301434917138334E-16, -1.269999999999999796, 0.07040908059505152083 ) ) ;
#270 = DIRECTION ( 'NONE',  ( 0.0000000000000000000, 0.0000000000000000000, 1.000000000000000000 ) ) ;
#271 = CARTESIAN_POINT ( 'NONE',  ( 0.0000000000000000000, 0.0000000000000000000, 0.0000000000000000000 ) ) ;
#272 = CC_DESIGN_PERSON_AND_ORGANIZATION_ASSIGNMENT ( #229, #40, ( #70 ) ) ;
#273 = CARTESIAN_POINT ( 'NONE',  ( 0.0000000000000000000, 1.250013176996620068, 0.09098975163972530811 ) ) ;
#274 = EDGE_LOOP ( 'NONE', ( #240, #86, #253, #216 ) ) ;
#275 = SHAPE_DEFINITION_REPRESENTATION ( #277, #37 ) ;
#276 = APPROVAL_ROLE ( '' ) ;
#277 = PRODUCT_DEFINITION_SHAPE ( 'NONE', 'NONE',  #137 ) ;
#278 = APPLICATION_PROTOCOL_DEFINITION ( 'international standard', 'config_control_design', 1994, #81 ) ;
#279 = FACE_OUTER_BOUND ( 'NONE', #175, .T. ) ;
#280 = CC_DESIGN_PERSON_AND_ORGANIZATION_ASSIGNMENT ( #166, #126, ( #117 ) ) ;
#281 = CALENDAR_DATE ( 2019, 16, 7 ) ;
#282 = EDGE_CURVE ( 'NONE', #185, #292, #21, .T. ) ;
#283 = AXIS2_PLACEMENT_3D ( 'NONE', #271, #270, #15 ) ;
#284 = SPHERICAL_SURFACE ( 'NONE', #110, 43.38800000000000523 ) ;
#285 = DIRECTION ( 'NONE',  ( 1.000000000000000000, 0.0000000000000000000, -0.0000000000000000000 ) ) ;
#286 = CONICAL_SURFACE ( 'NONE', #173, 1.250000000000000666, 0.7853981633974567167 ) ;
#287 = CC_DESIGN_PERSON_AND_ORGANIZATION_ASSIGNMENT ( #181, #128, ( #137 ) ) ;
#288 = CARTESIAN_POINT ( 'NONE',  ( 0.0000000000000000000, 5.287482853898881090E-15, -43.27900000000000347 ) ) ;
#289 = CARTESIAN_POINT ( 'NONE',  ( 0.0000000000000000000, 1.269999999999999796, -0.1089999999999996111 ) ) ;
#290 = CARTESIAN_POINT ( 'NONE',  ( 0.0000000000000000000, -1.250000000000000666, -0.1090000000000005964 ) ) ;
#291 = CARTESIAN_POINT ( 'NONE',  ( 0.0000000000000000000, -1.402452278986551307E-17, 0.07040908059505190941 ) ) ;
#292 = VERTEX_POINT ( 'NONE', #204 ) ;
#293 = FACE_OUTER_BOUND ( 'NONE', #296, .T. ) ;
#294 = DIRECTION ( 'NONE',  ( -0.0000000000000000000, 3.061515884555943146E-16, -1.000000000000000000 ) ) ;
#295 = DIRECTION ( 'NONE',  ( 0.0000000000000000000, 1.000000000000000000, 3.035734081473503012E-16 ) ) ;
#296 = EDGE_LOOP ( 'NONE', ( #67, #129, #219 ) ) ;
#297 = APPROVAL_PERSON_ORGANIZATION ( #235, #163, #276 ) ;
#298 = PERSON_AND_ORGANIZATION_ROLE ( 'design_supplier' ) ;
#299 = APPROVAL_STATUS ( 'not_yet_approved' ) ;
#300 = EDGE_CURVE ( 'NONE', #243, #210, #184, .T. ) ;
#301 = APPROVAL_DATE_TIME ( #43, #205 ) ;
ENDSEC;
END-ISO-10303-21;
