ISO-10303-21;
HEADER;
FILE_DESCRIPTION (( 'STEP AP214' ),
    '1' );
FILE_NAME ('4573-E0W.STEP',
    '2009-12-21T17:10:56',
    ( ' ' ),
    ( ' ' ),
    'SwSTEP 2.0',
    'SolidWorks 2009',
    '' );
FILE_SCHEMA (( 'AUTOMOTIVE_DESIGN' ));
ENDSEC;

DATA;
#1 = PLANE ( 'NONE',  #4 ) ;
#2 = FACE_OUTER_BOUND ( 'NONE', #90, .T. ) ;
#3 = FILL_AREA_STYLE_COLOUR ( '', #44 ) ;
#4 = AXIS2_PLACEMENT_3D ( 'NONE', #47, #46, #45 ) ;
#5 =( GEOMETRIC_REPRESENTATION_CONTEXT ( 3 ) GLOBAL_UNCERTAINTY_ASSIGNED_CONTEXT ( ( #6 ) ) GLOBAL_UNIT_ASSIGNED_CONTEXT ( ( #9, #8, #7 ) ) REPRESENTATION_CONTEXT ( 'NONE', 'WORKASPACE' ) );
#6 = UNCERTAINTY_MEASURE_WITH_UNIT (LENGTH_MEASURE( 1.000000000000000100E-005 ), #9, 'distance_accuracy_value', 'NONE');
#7 =( NAMED_UNIT ( * ) SI_UNIT ( $, .STERADIAN. ) SOLID_ANGLE_UNIT ( ) );
#8 =( NAMED_UNIT ( * ) PLANE_ANGLE_UNIT ( ) SI_UNIT ( $, .RADIAN. ) );
#9 =( LENGTH_UNIT ( ) NAMED_UNIT ( * ) SI_UNIT ( .MILLI., .METRE. ) );
#10 = MECHANICAL_DESIGN_GEOMETRIC_PRESENTATION_REPRESENTATION (  '', ( #12 ), #5 ) ;
#11 = PRESENTATION_LAYER_ASSIGNMENT (  '', '', ( #12 ) ) ;
#12 = STYLED_ITEM ( 'NONE', ( #13 ), #21 ) ;
#13 = PRESENTATION_STYLE_ASSIGNMENT (( #14 ) ) ;
#14 = SURFACE_STYLE_USAGE ( .BOTH. , #15 ) ;
#15 = SURFACE_SIDE_STYLE ('',( #16 ) ) ;
#16 = SURFACE_STYLE_FILL_AREA ( #17 ) ;
#17 = FILL_AREA_STYLE ('',( #18 ) ) ;
#18 = FILL_AREA_STYLE_COLOUR ( '', #19 ) ;
#19 = COLOUR_RGB ( '',0.9568627450980391500, 0.9490196078431372100, 0.9607843137254902200 ) ;
#20 = FACE_OUTER_BOUND ( 'NONE', #24, .T. ) ;
#21 = ADVANCED_FACE ( 'NONE', ( #20 ), #1, .F. ) ;
#22 = ORIENTED_EDGE ( 'NONE', *, *, #58, .F. ) ;
#23 = ORIENTED_EDGE ( 'NONE', *, *, #69, .F. ) ;
#24 = EDGE_LOOP ( 'NONE', ( #25, #26 ) ) ;
#25 = ORIENTED_EDGE ( 'NONE', *, *, #87, .F. ) ;
#26 = ORIENTED_EDGE ( 'NONE', *, *, #57, .F. ) ;
#27 = CARTESIAN_POINT ( 'NONE',  ( 0.0000000000000000000, 0.0000000000000000000, 4.308132045400366600 ) ) ;
#28 = COLOUR_RGB ( '',0.7960784313725489700, 0.8235294117647058400, 0.9372549019607843100 ) ;
#29 = FILL_AREA_STYLE_COLOUR ( '', #28 ) ;
#30 = CYLINDRICAL_SURFACE ( 'NONE', #203, 9.000000000000001800 ) ;
#31 =( GEOMETRIC_REPRESENTATION_CONTEXT ( 3 ) GLOBAL_UNCERTAINTY_ASSIGNED_CONTEXT ( ( #32 ) ) GLOBAL_UNIT_ASSIGNED_CONTEXT ( ( #35, #34, #33 ) ) REPRESENTATION_CONTEXT ( 'NONE', 'WORKASPACE' ) );
#32 = UNCERTAINTY_MEASURE_WITH_UNIT (LENGTH_MEASURE( 1.000000000000000100E-005 ), #35, 'distance_accuracy_value', 'NONE');
#33 =( NAMED_UNIT ( * ) SI_UNIT ( $, .STERADIAN. ) SOLID_ANGLE_UNIT ( ) );
#34 =( NAMED_UNIT ( * ) PLANE_ANGLE_UNIT ( ) SI_UNIT ( $, .RADIAN. ) );
#35 =( LENGTH_UNIT ( ) NAMED_UNIT ( * ) SI_UNIT ( .MILLI., .METRE. ) );
#36 = MECHANICAL_DESIGN_GEOMETRIC_PRESENTATION_REPRESENTATION (  '', ( #38 ), #31 ) ;
#37 = PRESENTATION_LAYER_ASSIGNMENT (  '', '', ( #38 ) ) ;
#38 = STYLED_ITEM ( 'NONE', ( #39 ), #49 ) ;
#39 = PRESENTATION_STYLE_ASSIGNMENT (( #40 ) ) ;
#40 = SURFACE_STYLE_USAGE ( .BOTH. , #41 ) ;
#41 = SURFACE_SIDE_STYLE ('',( #42 ) ) ;
#42 = SURFACE_STYLE_FILL_AREA ( #43 ) ;
#43 = FILL_AREA_STYLE ('',( #3 ) ) ;
#44 = COLOUR_RGB ( '',0.9568627450980391500, 0.9490196078431372100, 0.9607843137254902200 ) ;
#45 = DIRECTION ( 'NONE',  ( 1.000000000000000000, 0.0000000000000000000, 0.0000000000000000000 ) ) ;
#46 = DIRECTION ( 'NONE',  ( 0.0000000000000000000, -0.0000000000000000000, 1.000000000000000000 ) ) ;
#47 = CARTESIAN_POINT ( 'NONE',  ( 0.0000000000000000000, 1.300574900694489100E-015, -3.540000000000000000 ) ) ;
#48 = ORIENTED_EDGE ( 'NONE', *, *, #87, .T. ) ;
#49 = ADVANCED_FACE ( 'NONE', ( #2 ), #30, .T. ) ;
#50 = MANIFOLD_SOLID_BREP ( 'NONE', #51 ) ;
#51 = CLOSED_SHELL ( 'NONE', ( #49, #76, #63, #54, #21 ) ) ;
#52 = ORIENTED_EDGE ( 'NONE', *, *, #78, .T. ) ;
#53 = EDGE_LOOP ( 'NONE', ( #55, #56, #52, #22, #23 ) ) ;
#54 = ADVANCED_FACE ( 'NONE', ( #187 ), #100, .T. ) ;
#55 = ORIENTED_EDGE ( 'NONE', *, *, #84, .F. ) ;
#56 = ORIENTED_EDGE ( 'NONE', *, *, #57, .T. ) ;
#57 = EDGE_CURVE ( 'NONE', #88, #89, #95, .T. ) ;
#58 = EDGE_CURVE ( 'NONE', #72, #79, #175, .T. ) ;
#59 = ORIENTED_EDGE ( 'NONE', *, *, #66, .T. ) ;
#60 = ORIENTED_EDGE ( 'NONE', *, *, #58, .T. ) ;
#61 = ORIENTED_EDGE ( 'NONE', *, *, #68, .F. ) ;
#62 = ORIENTED_EDGE ( 'NONE', *, *, #82, .T. ) ;
#63 = ADVANCED_FACE ( 'NONE', ( #170 ), #155, .T. ) ;
#64 = EDGE_LOOP ( 'NONE', ( #61, #60, #62, #59 ) ) ;
#65 = ORIENTED_EDGE ( 'NONE', *, *, #66, .F. ) ;
#66 = EDGE_CURVE ( 'NONE', #74, #70, #138, .T. ) ;
#67 = ORIENTED_EDGE ( 'NONE', *, *, #68, .T. ) ;
#68 = EDGE_CURVE ( 'NONE', #72, #70, #131, .T. ) ;
#69 = EDGE_CURVE ( 'NONE', #75, #72, #126, .T. ) ;
#70 = VERTEX_POINT ( 'NONE', #121 ) ;
#71 = ORIENTED_EDGE ( 'NONE', *, *, #69, .T. ) ;
#72 = VERTEX_POINT ( 'NONE', #120 ) ;
#73 = ORIENTED_EDGE ( 'NONE', *, *, #82, .F. ) ;
#74 = VERTEX_POINT ( 'NONE', #119 ) ;
#75 = VERTEX_POINT ( 'NONE', #118 ) ;
#76 = ADVANCED_FACE ( 'NONE', ( #117 ), #148, .T. ) ;
#77 = EDGE_CURVE ( 'NONE', #74, #75, #147, .T. ) ;
#78 = EDGE_CURVE ( 'NONE', #89, #79, #242, .T. ) ;
#79 = VERTEX_POINT ( 'NONE', #215 ) ;
#80 = ORIENTED_EDGE ( 'NONE', *, *, #78, .F. ) ;
#81 = EDGE_LOOP ( 'NONE', ( #86, #71, #67, #65 ) ) ;
#82 = EDGE_CURVE ( 'NONE', #79, #74, #214, .T. ) ;
#83 = ORIENTED_EDGE ( 'NONE', *, *, #84, .T. ) ;
#84 = EDGE_CURVE ( 'NONE', #88, #75, #235, .T. ) ;
#85 = ORIENTED_EDGE ( 'NONE', *, *, #77, .F. ) ;
#86 = ORIENTED_EDGE ( 'NONE', *, *, #77, .T. ) ;
#87 = EDGE_CURVE ( 'NONE', #89, #88, #227, .T. ) ;
#88 = VERTEX_POINT ( 'NONE', #222 ) ;
#89 = VERTEX_POINT ( 'NONE', #221 ) ;
#90 = EDGE_LOOP ( 'NONE', ( #48, #83, #85, #73, #80 ) ) ;
#91 = DIRECTION ( 'NONE',  ( 1.000000000000000000, 0.0000000000000000000, 0.0000000000000000000 ) ) ;
#92 = DIRECTION ( 'NONE',  ( -0.0000000000000000000, -0.0000000000000000000, 1.000000000000000000 ) ) ;
#93 = CARTESIAN_POINT ( 'NONE',  ( 0.0000000000000000000, 0.0000000000000000000, -3.539999999999999600 ) ) ;
#94 = AXIS2_PLACEMENT_3D ( 'NONE', #93, #92, #91 ) ;
#95 = CIRCLE ( 'NONE', #94, 9.000000000000001800 ) ;
#96 = DIRECTION ( 'NONE',  ( 1.000000000000000000, 0.0000000000000000000, 0.0000000000000000000 ) ) ;
#97 = DIRECTION ( 'NONE',  ( -0.0000000000000000000, -0.0000000000000000000, 1.000000000000000000 ) ) ;
#98 = CARTESIAN_POINT ( 'NONE',  ( 0.0000000000000000000, 0.0000000000000000000, 4.308132045400366600 ) ) ;
#99 = AXIS2_PLACEMENT_3D ( 'NONE', #98, #97, #96 ) ;
#100 = CYLINDRICAL_SURFACE ( 'NONE', #99, 9.000000000000001800 ) ;
#101 =( GEOMETRIC_REPRESENTATION_CONTEXT ( 3 ) GLOBAL_UNCERTAINTY_ASSIGNED_CONTEXT ( ( #102 ) ) GLOBAL_UNIT_ASSIGNED_CONTEXT ( ( #105, #104, #103 ) ) REPRESENTATION_CONTEXT ( 'NONE', 'WORKASPACE' ) );
#102 = UNCERTAINTY_MEASURE_WITH_UNIT (LENGTH_MEASURE( 1.000000000000000100E-005 ), #105, 'distance_accuracy_value', 'NONE');
#103 =( NAMED_UNIT ( * ) SI_UNIT ( $, .STERADIAN. ) SOLID_ANGLE_UNIT ( ) );
#104 =( NAMED_UNIT ( * ) PLANE_ANGLE_UNIT ( ) SI_UNIT ( $, .RADIAN. ) );
#105 =( LENGTH_UNIT ( ) NAMED_UNIT ( * ) SI_UNIT ( .MILLI., .METRE. ) );
#106 =( LENGTH_UNIT ( ) NAMED_UNIT ( * ) SI_UNIT ( .MILLI., .METRE. ) );
#107 = MECHANICAL_DESIGN_GEOMETRIC_PRESENTATION_REPRESENTATION (  '', ( #109 ), #149 ) ;
#108 = PRESENTATION_LAYER_ASSIGNMENT (  '', '', ( #109 ) ) ;
#109 = STYLED_ITEM ( 'NONE', ( #110 ), #76 ) ;
#110 = PRESENTATION_STYLE_ASSIGNMENT (( #111 ) ) ;
#111 = SURFACE_STYLE_USAGE ( .BOTH. , #112 ) ;
#112 = SURFACE_SIDE_STYLE ('',( #113 ) ) ;
#113 = SURFACE_STYLE_FILL_AREA ( #114 ) ;
#114 = FILL_AREA_STYLE ('',( #115 ) ) ;
#115 = FILL_AREA_STYLE_COLOUR ( '', #116 ) ;
#116 = COLOUR_RGB ( '',0.9568627450980391500, 0.9490196078431372100, 0.9607843137254902200 ) ;
#117 = FACE_OUTER_BOUND ( 'NONE', #81, .T. ) ;
#118 = CARTESIAN_POINT ( 'NONE',  ( -9.000000000000001800, 1.102145718440139700E-015, -1.751008085452725700 ) ) ;
#119 = CARTESIAN_POINT ( 'NONE',  ( 0.0000000000000000000, 9.000000000000001800, -1.751008085452725700 ) ) ;
#120 = CARTESIAN_POINT ( 'NONE',  ( -1.102145718440139700E-015, -9.000000000000001800, -1.751008085452725700 ) ) ;
#121 = CARTESIAN_POINT ( 'NONE',  ( 0.0000000000000000000, 6.306722722185243100E-016, 3.539999999999997800 ) ) ;
#122 = DIRECTION ( 'NONE',  ( 1.000000000000000000, 0.0000000000000000000, 0.0000000000000000000 ) ) ;
#123 = DIRECTION ( 'NONE',  ( -0.0000000000000000000, -0.0000000000000000000, 1.000000000000000000 ) ) ;
#124 = CARTESIAN_POINT ( 'NONE',  ( 0.0000000000000000000, 0.0000000000000000000, -1.751008085452725700 ) ) ;
#125 = AXIS2_PLACEMENT_3D ( 'NONE', #124, #123, #122 ) ;
#126 = CIRCLE ( 'NONE', #125, 9.000000000000001800 ) ;
#127 = DIRECTION ( 'NONE',  ( -1.224606353822377300E-016, -1.000000000000000000, 0.0000000000000000000 ) ) ;
#128 = DIRECTION ( 'NONE',  ( -1.000000000000000000, 1.224606353822377300E-016, 0.0000000000000000000 ) ) ;
#129 = CARTESIAN_POINT ( 'NONE',  ( 0.0000000000000000000, 0.0000000000000000000, -6.760000000000002500 ) ) ;
#130 = AXIS2_PLACEMENT_3D ( 'NONE', #129, #128, #127 ) ;
#131 = CIRCLE ( 'NONE', #130, 10.30000000000000100 ) ;
#132 = DIRECTION ( 'NONE',  ( 0.0000000000000000000, 0.0000000000000000000, -1.000000000000000000 ) ) ;
#133 = DIRECTION ( 'NONE',  ( 1.000000000000000000, 0.0000000000000000000, 0.0000000000000000000 ) ) ;
#134 = CARTESIAN_POINT ( 'NONE',  ( 0.0000000000000000000, 0.0000000000000000000, -6.760000000000002500 ) ) ;
#135 = AXIS2_PLACEMENT_3D ( 'NONE', #134, #133, #132 ) ;
#136 = DIRECTION ( 'NONE',  ( 0.0000000000000000000, 1.000000000000000000, 0.0000000000000000000 ) ) ;
#137 = DIRECTION ( 'NONE',  ( -1.000000000000000000, 0.0000000000000000000, 0.0000000000000000000 ) ) ;
#138 = CIRCLE ( 'NONE', #135, 10.30000000000000100 ) ;
#139 = DIRECTION ( 'NONE',  ( 1.000000000000000000, 0.0000000000000000000, 0.0000000000000000000 ) ) ;
#140 = DIRECTION ( 'NONE',  ( -0.0000000000000000000, -0.0000000000000000000, 1.000000000000000000 ) ) ;
#141 = CARTESIAN_POINT ( 'NONE',  ( 0.0000000000000000000, 0.0000000000000000000, -1.751008085452725700 ) ) ;
#142 = AXIS2_PLACEMENT_3D ( 'NONE', #141, #140, #139 ) ;
#143 = DIRECTION ( 'NONE',  ( 0.0000000000000000000, 1.000000000000000000, 0.0000000000000000000 ) ) ;
#144 = DIRECTION ( 'NONE',  ( -1.000000000000000000, 0.0000000000000000000, 0.0000000000000000000 ) ) ;
#145 = CARTESIAN_POINT ( 'NONE',  ( 0.0000000000000000000, 0.0000000000000000000, -6.760000000000002500 ) ) ;
#146 = AXIS2_PLACEMENT_3D ( 'NONE', #145, #144, #143 ) ;
#147 = CIRCLE ( 'NONE', #142, 9.000000000000001800 ) ;
#148 = SPHERICAL_SURFACE ( 'NONE', #146, 10.30000000000000100 ) ;
#149 =( GEOMETRIC_REPRESENTATION_CONTEXT ( 3 ) GLOBAL_UNCERTAINTY_ASSIGNED_CONTEXT ( ( #150 ) ) GLOBAL_UNIT_ASSIGNED_CONTEXT ( ( #106, #152, #151 ) ) REPRESENTATION_CONTEXT ( 'NONE', 'WORKASPACE' ) );
#150 = UNCERTAINTY_MEASURE_WITH_UNIT (LENGTH_MEASURE( 1.000000000000000100E-005 ), #106, 'distance_accuracy_value', 'NONE');
#151 =( NAMED_UNIT ( * ) SI_UNIT ( $, .STERADIAN. ) SOLID_ANGLE_UNIT ( ) );
#152 =( NAMED_UNIT ( * ) PLANE_ANGLE_UNIT ( ) SI_UNIT ( $, .RADIAN. ) );
#153 = CARTESIAN_POINT ( 'NONE',  ( 0.0000000000000000000, 0.0000000000000000000, -6.760000000000002500 ) ) ;
#154 = AXIS2_PLACEMENT_3D ( 'NONE', #153, #137, #136 ) ;
#155 = SPHERICAL_SURFACE ( 'NONE', #154, 10.30000000000000100 ) ;
#156 =( GEOMETRIC_REPRESENTATION_CONTEXT ( 3 ) GLOBAL_UNCERTAINTY_ASSIGNED_CONTEXT ( ( #157 ) ) GLOBAL_UNIT_ASSIGNED_CONTEXT ( ( #160, #159, #158 ) ) REPRESENTATION_CONTEXT ( 'NONE', 'WORKASPACE' ) );
#157 = UNCERTAINTY_MEASURE_WITH_UNIT (LENGTH_MEASURE( 1.000000000000000100E-005 ), #160, 'distance_accuracy_value', 'NONE');
#158 =( NAMED_UNIT ( * ) SI_UNIT ( $, .STERADIAN. ) SOLID_ANGLE_UNIT ( ) );
#159 =( NAMED_UNIT ( * ) PLANE_ANGLE_UNIT ( ) SI_UNIT ( $, .RADIAN. ) );
#160 =( LENGTH_UNIT ( ) NAMED_UNIT ( * ) SI_UNIT ( .MILLI., .METRE. ) );
#161 = MECHANICAL_DESIGN_GEOMETRIC_PRESENTATION_REPRESENTATION (  '', ( #163 ), #156 ) ;
#162 = PRESENTATION_LAYER_ASSIGNMENT (  '', '', ( #163 ) ) ;
#163 = STYLED_ITEM ( 'NONE', ( #164 ), #63 ) ;
#164 = PRESENTATION_STYLE_ASSIGNMENT (( #165 ) ) ;
#165 = SURFACE_STYLE_USAGE ( .BOTH. , #166 ) ;
#166 = SURFACE_SIDE_STYLE ('',( #167 ) ) ;
#167 = SURFACE_STYLE_FILL_AREA ( #168 ) ;
#168 = FILL_AREA_STYLE ('',( #176 ) ) ;
#169 = COLOUR_RGB ( '',0.9568627450980391500, 0.9490196078431372100, 0.9607843137254902200 ) ;
#170 = FACE_OUTER_BOUND ( 'NONE', #64, .T. ) ;
#171 = DIRECTION ( 'NONE',  ( 1.000000000000000000, 0.0000000000000000000, 0.0000000000000000000 ) ) ;
#172 = DIRECTION ( 'NONE',  ( -0.0000000000000000000, -0.0000000000000000000, 1.000000000000000000 ) ) ;
#173 = CARTESIAN_POINT ( 'NONE',  ( 0.0000000000000000000, 0.0000000000000000000, -1.751008085452725700 ) ) ;
#174 = AXIS2_PLACEMENT_3D ( 'NONE', #173, #172, #171 ) ;
#175 = CIRCLE ( 'NONE', #174, 9.000000000000001800 ) ;
#176 = FILL_AREA_STYLE_COLOUR ( '', #169 ) ;
#177 = MECHANICAL_DESIGN_GEOMETRIC_PRESENTATION_REPRESENTATION (  '', ( #179 ), #101 ) ;
#178 = PRESENTATION_LAYER_ASSIGNMENT (  '', '', ( #179 ) ) ;
#179 = STYLED_ITEM ( 'NONE', ( #180 ), #54 ) ;
#180 = PRESENTATION_STYLE_ASSIGNMENT (( #181 ) ) ;
#181 = SURFACE_STYLE_USAGE ( .BOTH. , #182 ) ;
#182 = SURFACE_SIDE_STYLE ('',( #183 ) ) ;
#183 = SURFACE_STYLE_FILL_AREA ( #184 ) ;
#184 = FILL_AREA_STYLE ('',( #185 ) ) ;
#185 = FILL_AREA_STYLE_COLOUR ( '', #186 ) ;
#186 = COLOUR_RGB ( '',0.9568627450980391500, 0.9490196078431372100, 0.9607843137254902200 ) ;
#187 = FACE_OUTER_BOUND ( 'NONE', #53, .T. ) ;
#188 =( GEOMETRIC_REPRESENTATION_CONTEXT ( 3 ) GLOBAL_UNCERTAINTY_ASSIGNED_CONTEXT ( ( #189 ) ) GLOBAL_UNIT_ASSIGNED_CONTEXT ( ( #192, #191, #190 ) ) REPRESENTATION_CONTEXT ( 'NONE', 'WORKASPACE' ) );
#189 = UNCERTAINTY_MEASURE_WITH_UNIT (LENGTH_MEASURE( 1.000000000000000100E-005 ), #192, 'distance_accuracy_value', 'NONE');
#190 =( NAMED_UNIT ( * ) SI_UNIT ( $, .STERADIAN. ) SOLID_ANGLE_UNIT ( ) );
#191 =( NAMED_UNIT ( * ) PLANE_ANGLE_UNIT ( ) SI_UNIT ( $, .RADIAN. ) );
#192 =( LENGTH_UNIT ( ) NAMED_UNIT ( * ) SI_UNIT ( .MILLI., .METRE. ) );
#193 = MECHANICAL_DESIGN_GEOMETRIC_PRESENTATION_REPRESENTATION (  '', ( #195 ), #188 ) ;
#194 = PRESENTATION_LAYER_ASSIGNMENT (  '', '', ( #195 ) ) ;
#195 = STYLED_ITEM ( 'NONE', ( #196 ), #50 ) ;
#196 = PRESENTATION_STYLE_ASSIGNMENT (( #197 ) ) ;
#197 = SURFACE_STYLE_USAGE ( .BOTH. , #198 ) ;
#198 = SURFACE_SIDE_STYLE ('',( #199 ) ) ;
#199 = SURFACE_STYLE_FILL_AREA ( #200 ) ;
#200 = FILL_AREA_STYLE ('',( #29 ) ) ;
#201 = DIRECTION ( 'NONE',  ( 1.000000000000000000, 0.0000000000000000000, 0.0000000000000000000 ) ) ;
#202 = DIRECTION ( 'NONE',  ( -0.0000000000000000000, -0.0000000000000000000, 1.000000000000000000 ) ) ;
#203 = AXIS2_PLACEMENT_3D ( 'NONE', #27, #202, #201 ) ;
#204 = PRODUCT_DEFINITION_SHAPE ( 'NONE', 'NONE',  #207 ) ;
#205 = PRODUCT_RELATED_PRODUCT_CATEGORY ( 'part', '', ( #211 ) ) ;
#206 = PRODUCT_DEFINITION_FORMATION_WITH_SPECIFIED_SOURCE ( 'ANY', '', #211, .NOT_KNOWN. ) ;
#207 = PRODUCT_DEFINITION ( 'UNKNOWN', '', #206, #208 ) ;
#208 = PRODUCT_DEFINITION_CONTEXT ( 'detailed design', #210, 'design' ) ;
#209 = APPLICATION_PROTOCOL_DEFINITION ( 'draft international standard', 'automotive_design', 1998, #210 ) ;
#210 = APPLICATION_CONTEXT ( 'automotive_design' ) ;
#211 = PRODUCT ( '4573-E0W', '4573-E0W', '', ( #212 ) ) ;
#212 = PRODUCT_CONTEXT ( 'NONE', #258, 'mechanical' ) ;
#213 = APPLICATION_PROTOCOL_DEFINITION ( 'draft international standard', 'automotive_design', 1998, #258 ) ;
#214 = CIRCLE ( 'NONE', #234, 9.000000000000001800 ) ;
#215 = CARTESIAN_POINT ( 'NONE',  ( 9.000000000000001800, 0.0000000000000000000, -1.751008085452725700 ) ) ;
#216 = DIRECTION ( 'NONE',  ( -0.0000000000000000000, -0.0000000000000000000, 1.000000000000000000 ) ) ;
#217 =( NAMED_UNIT ( * ) SI_UNIT ( $, .STERADIAN. ) SOLID_ANGLE_UNIT ( ) );
#218 =( NAMED_UNIT ( * ) PLANE_ANGLE_UNIT ( ) SI_UNIT ( $, .RADIAN. ) );
#219 =( LENGTH_UNIT ( ) NAMED_UNIT ( * ) SI_UNIT ( .MILLI., .METRE. ) );
#220 = CARTESIAN_POINT ( 'NONE',  ( 0.0000000000000000000, 0.0000000000000000000, 0.0000000000000000000 ) ) ;
#221 = CARTESIAN_POINT ( 'NONE',  ( 9.000000000000001800, 0.0000000000000000000, -3.539999999999999600 ) ) ;
#222 = CARTESIAN_POINT ( 'NONE',  ( -9.000000000000001800, 1.102145718440139700E-015, -3.539999999999999600 ) ) ;
#223 = DIRECTION ( 'NONE',  ( 1.000000000000000000, 0.0000000000000000000, 0.0000000000000000000 ) ) ;
#224 = DIRECTION ( 'NONE',  ( -0.0000000000000000000, -0.0000000000000000000, 1.000000000000000000 ) ) ;
#225 = CARTESIAN_POINT ( 'NONE',  ( 0.0000000000000000000, 0.0000000000000000000, -3.539999999999999600 ) ) ;
#226 = AXIS2_PLACEMENT_3D ( 'NONE', #225, #224, #223 ) ;
#227 = CIRCLE ( 'NONE', #226, 9.000000000000001800 ) ;
#228 = DIRECTION ( 'NONE',  ( -0.0000000000000000000, -0.0000000000000000000, 1.000000000000000000 ) ) ;
#229 = VECTOR ( 'NONE', #228, 1000.000000000000000 ) ;
#230 = CARTESIAN_POINT ( 'NONE',  ( -9.000000000000001800, 1.102145718440139700E-015, 4.308132045400366600 ) ) ;
#231 = DIRECTION ( 'NONE',  ( 1.000000000000000000, 0.0000000000000000000, 0.0000000000000000000 ) ) ;
#232 = DIRECTION ( 'NONE',  ( -0.0000000000000000000, -0.0000000000000000000, 1.000000000000000000 ) ) ;
#233 = CARTESIAN_POINT ( 'NONE',  ( 0.0000000000000000000, 0.0000000000000000000, -1.751008085452725700 ) ) ;
#234 = AXIS2_PLACEMENT_3D ( 'NONE', #233, #232, #231 ) ;
#235 = LINE ( 'NONE', #230, #229 ) ;
#236 = DIRECTION ( 'NONE',  ( 0.0000000000000000000, 0.0000000000000000000, 1.000000000000000000 ) ) ;
#237 = AXIS2_PLACEMENT_3D ( 'NONE', #220, #236, #239 ) ;
#238 = SHAPE_DEFINITION_REPRESENTATION ( #204, #259 ) ;
#239 = DIRECTION ( 'NONE',  ( 1.000000000000000000, 0.0000000000000000000, 0.0000000000000000000 ) ) ;
#240 = VECTOR ( 'NONE', #216, 1000.000000000000000 ) ;
#241 = CARTESIAN_POINT ( 'NONE',  ( 9.000000000000001800, 0.0000000000000000000, 4.308132045400366600 ) ) ;
#242 = LINE ( 'NONE', #241, #240 ) ;
#243 =( GEOMETRIC_REPRESENTATION_CONTEXT ( 3 ) GLOBAL_UNCERTAINTY_ASSIGNED_CONTEXT ( ( #244 ) ) GLOBAL_UNIT_ASSIGNED_CONTEXT ( ( #247, #246, #245 ) ) REPRESENTATION_CONTEXT ( 'NONE', 'WORKASPACE' ) );
#244 = UNCERTAINTY_MEASURE_WITH_UNIT (LENGTH_MEASURE( 1.000000000000000100E-005 ), #247, 'distance_accuracy_value', 'NONE');
#245 =( NAMED_UNIT ( * ) SI_UNIT ( $, .STERADIAN. ) SOLID_ANGLE_UNIT ( ) );
#246 =( NAMED_UNIT ( * ) PLANE_ANGLE_UNIT ( ) SI_UNIT ( $, .RADIAN. ) );
#247 =( LENGTH_UNIT ( ) NAMED_UNIT ( * ) SI_UNIT ( .MILLI., .METRE. ) );
#248 = MECHANICAL_DESIGN_GEOMETRIC_PRESENTATION_REPRESENTATION (  '', ( #250 ), #243 ) ;
#249 = PRESENTATION_LAYER_ASSIGNMENT (  '', '', ( #250 ) ) ;
#250 = STYLED_ITEM ( 'NONE', ( #251 ), #259 ) ;
#251 = PRESENTATION_STYLE_ASSIGNMENT (( #252 ) ) ;
#252 = SURFACE_STYLE_USAGE ( .BOTH. , #253 ) ;
#253 = SURFACE_SIDE_STYLE ('',( #254 ) ) ;
#254 = SURFACE_STYLE_FILL_AREA ( #255 ) ;
#255 = FILL_AREA_STYLE ('',( #256 ) ) ;
#256 = FILL_AREA_STYLE_COLOUR ( '', #257 ) ;
#257 = COLOUR_RGB ( '',0.7960784313725489700, 0.8235294117647058400, 0.9372549019607843100 ) ;
#258 = APPLICATION_CONTEXT ( 'automotive_design' ) ;
#259 = ADVANCED_BREP_SHAPE_REPRESENTATION ( '4573-E0W', ( #50, #237 ), #260 ) ;
#260 =( GEOMETRIC_REPRESENTATION_CONTEXT ( 3 ) GLOBAL_UNCERTAINTY_ASSIGNED_CONTEXT ( ( #261 ) ) GLOBAL_UNIT_ASSIGNED_CONTEXT ( ( #219, #218, #217 ) ) REPRESENTATION_CONTEXT ( 'NONE', 'WORKASPACE' ) );
#261 = UNCERTAINTY_MEASURE_WITH_UNIT (LENGTH_MEASURE( 1.000000000000000100E-005 ), #219, 'distance_accuracy_value', 'NONE');
ENDSEC;
END-ISO-10303-21;
