ISO-10303-21;
HEADER;
FILE_DESCRIPTION (( 'STEP AP203' ),
    '1' );
FILE_NAME ('Web Model 15403_15409.step',
    '2022-03-11T18:18:31',
    ( '' ),
    ( '' ),
    'SwSTEP 2.0',
    'SolidWorks 2021',
    '' );
FILE_SCHEMA (( 'CONFIG_CONTROL_DESIGN' ));
ENDSEC;

DATA;
#1 = AXIS2_PLACEMENT_3D ( 'NONE', #72, #61, #156 ) ;
#2 = APPLICATION_PROTOCOL_DEFINITION ( 'international standard', 'config_control_design', 1994, #23 ) ;
#3 = DIRECTION ( 'NONE',  ( 1.000000000000000000, 0.000000000000000000, 0.000000000000000000 ) ) ;
#4 =( NAMED_UNIT ( * ) SI_UNIT ( $, .STERADIAN. ) SOLID_ANGLE_UNIT ( ) );
#5 = APPROVAL_PERSON_ORGANIZATION ( #53, #9, #163 ) ;
#6 = DATE_TIME_ROLE ( 'classification_date' ) ;
#7 = ORIENTED_EDGE ( 'NONE', *, *, #110, .T. ) ;
#8 = PRODUCT_DEFINITION_FORMATION_WITH_SPECIFIED_SOURCE ( 'ANY', '', #24, .NOT_KNOWN. ) ;
#9 = APPROVAL ( #113, 'UNSPECIFIED' ) ;
#10 = ORIENTED_EDGE ( 'NONE', *, *, #136, .T. ) ;
#11 = LINE ( 'NONE', #95, #154 ) ;
#12 = VECTOR ( 'NONE', #13, 1000.000000000000000 ) ;
#13 = DIRECTION ( 'NONE',  ( -1.000000000000000000, -0.000000000000000000, -0.000000000000000000 ) ) ;
#14 = DIRECTION ( 'NONE',  ( 1.000000000000000000, 0.000000000000000000, 0.000000000000000000 ) ) ;
#15 = CC_DESIGN_PERSON_AND_ORGANIZATION_ASSIGNMENT ( #88, #127, ( #77 ) ) ;
#16 = UNCERTAINTY_MEASURE_WITH_UNIT (LENGTH_MEASURE( 1.000000000000000082E-05 ), #153, 'distance_accuracy_value', 'NONE');
#17 = AXIS2_PLACEMENT_3D ( 'NONE', #86, #116, #40 ) ;
#18 = ORIENTED_EDGE ( 'NONE', *, *, #110, .F. ) ;
#19 = APPROVAL_DATE_TIME ( #144, #169 ) ;
#20 = CYLINDRICAL_SURFACE ( 'NONE', #174, 12.69999999999999929 ) ;
#21 = EDGE_CURVE ( 'NONE', #109, #46, #115, .T. ) ;
#22 = AXIS2_PLACEMENT_3D ( 'NONE', #57, #138, #142 ) ;
#23 = APPLICATION_CONTEXT ( 'configuration controlled 3d designs of mechanical parts and assemblies' ) ;
#24 = PRODUCT ( 'Web Model 15403_15409', 'Web Model 15403_15409', '', ( #165 ) ) ;
#25 = APPROVAL_DATE_TIME ( #151, #9 ) ;
#26 = DATE_AND_TIME ( #150, #85 ) ;
#27 = CARTESIAN_POINT ( 'NONE',  ( -1.500000000000000000, 1.555301434917138433E-15, -12.69999999999999929 ) ) ;
#28 = MANIFOLD_SOLID_BREP ( 'Boss-Extrude1', #52 ) ;
#29 = PERSON_AND_ORGANIZATION ( #100, #79 ) ;
#30 = APPLICATION_CONTEXT ( 'configuration controlled 3d designs of mechanical parts and assemblies' ) ;
#31 = CALENDAR_DATE ( 2022, 11, 3 ) ;
#32 = COORDINATED_UNIVERSAL_TIME_OFFSET ( 5, 0, .BEHIND. ) ;
#33 = FACE_OUTER_BOUND ( 'NONE', #107, .T. ) ;
#34 = CC_DESIGN_DATE_AND_TIME_ASSIGNMENT ( #26, #80, ( #69 ) ) ;
#35 = ORIENTED_EDGE ( 'NONE', *, *, #167, .T. ) ;
#36 = ORIENTED_EDGE ( 'NONE', *, *, #21, .F. ) ;
#37 = LOCAL_TIME ( 13, 18, 31.00000000000000000, #32 ) ;
#38 = COORDINATED_UNIVERSAL_TIME_OFFSET ( 5, 0, .BEHIND. ) ;
#39 = PERSON_AND_ORGANIZATION ( #100, #79 ) ;
#40 = DIRECTION ( 'NONE',  ( 0.000000000000000000, 0.000000000000000000, 1.000000000000000000 ) ) ;
#41 = CYLINDRICAL_SURFACE ( 'NONE', #17, 12.69999999999999929 ) ;
#42 = CARTESIAN_POINT ( 'NONE',  ( -1.500000000000000000, 0.000000000000000000, 12.69999999999999929 ) ) ;
#43 = CC_DESIGN_APPROVAL ( #9, ( #69 ) ) ;
#44 = LOCAL_TIME ( 13, 18, 31.00000000000000000, #71 ) ;
#45 = APPROVAL_STATUS ( 'not_yet_approved' ) ;
#46 = VERTEX_POINT ( 'NONE', #157 ) ;
#47 = CC_DESIGN_PERSON_AND_ORGANIZATION_ASSIGNMENT ( #170, #87, ( #8 ) ) ;
#48 = CC_DESIGN_APPROVAL ( #123, ( #8 ) ) ;
#49 = CALENDAR_DATE ( 2022, 11, 3 ) ;
#50 = FACE_OUTER_BOUND ( 'NONE', #63, .T. ) ;
#51 = ADVANCED_FACE ( 'NONE', ( #33 ), #20, .T. ) ;
#52 = CLOSED_SHELL ( 'NONE', ( #51, #161, #64, #102 ) ) ;
#53 = PERSON_AND_ORGANIZATION ( #100, #79 ) ;
#54 = PERSON_AND_ORGANIZATION_ROLE ( 'design_owner' ) ;
#55 = APPLICATION_PROTOCOL_DEFINITION ( 'international standard', 'config_control_design', 1994, #30 ) ;
#56 = CARTESIAN_POINT ( 'NONE',  ( 1.500000000000000000, 0.000000000000000000, 0.000000000000000000 ) ) ;
#57 = CARTESIAN_POINT ( 'NONE',  ( 1.500000000000000000, 0.000000000000000000, 0.000000000000000000 ) ) ;
#58 = FACE_OUTER_BOUND ( 'NONE', #76, .T. ) ;
#59 = APPROVAL_STATUS ( 'not_yet_approved' ) ;
#60 = CC_DESIGN_SECURITY_CLASSIFICATION ( #77, ( #8 ) ) ;
#61 = DIRECTION ( 'NONE',  ( 1.000000000000000000, 0.000000000000000000, 0.000000000000000000 ) ) ;
#62 = FACE_OUTER_BOUND ( 'NONE', #135, .T. ) ;
#63 = EDGE_LOOP ( 'NONE', ( #18, #129 ) ) ;
#64 = ADVANCED_FACE ( 'NONE', ( #62 ), #172, .T. ) ;
#65 = DIRECTION ( 'NONE',  ( 0.000000000000000000, 0.000000000000000000, 1.000000000000000000 ) ) ;
#66 = DIRECTION ( 'NONE',  ( 0.000000000000000000, 0.000000000000000000, -1.000000000000000000 ) ) ;
#67 = CARTESIAN_POINT ( 'NONE',  ( 0.000000000000000000, 0.000000000000000000, 0.000000000000000000 ) ) ;
#68 = PERSON_AND_ORGANIZATION ( #100, #79 ) ;
#69 = PRODUCT_DEFINITION ( 'UNKNOWN', '', #8, #70 ) ;
#70 = DESIGN_CONTEXT ( 'detailed design', #23, 'design' ) ;
#71 = COORDINATED_UNIVERSAL_TIME_OFFSET ( 5, 0, .BEHIND. ) ;
#72 = CARTESIAN_POINT ( 'NONE',  ( 1.500000000000000000, 0.000000000000000000, 0.000000000000000000 ) ) ;
#73 = SHAPE_DEFINITION_REPRESENTATION ( #175, #171 ) ;
#74 = CARTESIAN_POINT ( 'NONE',  ( 1.500000000000000000, 0.000000000000000000, 0.000000000000000000 ) ) ;
#75 = VERTEX_POINT ( 'NONE', #27 ) ;
#76 = EDGE_LOOP ( 'NONE', ( #89, #36, #94, #7 ) ) ;
#77 = SECURITY_CLASSIFICATION ( '', '', #90 ) ;
#78 = CARTESIAN_POINT ( 'NONE',  ( -1.500000000000000000, 0.000000000000000000, 0.000000000000000000 ) ) ;
#79 = ORGANIZATION ( 'UNSPECIFIED', 'UNSPECIFIED', '' ) ;
#80 = DATE_TIME_ROLE ( 'creation_date' ) ;
#81 = CALENDAR_DATE ( 2022, 11, 3 ) ;
#82 = DIRECTION ( 'NONE',  ( -1.000000000000000000, -0.000000000000000000, -0.000000000000000000 ) ) ;
#83 = DIRECTION ( 'NONE',  ( 1.000000000000000000, 0.000000000000000000, 0.000000000000000000 ) ) ;
#84 = EDGE_CURVE ( 'NONE', #109, #145, #11, .T. ) ;
#85 = LOCAL_TIME ( 13, 18, 31.00000000000000000, #141 ) ;
#86 = CARTESIAN_POINT ( 'NONE',  ( 1.500000000000000000, 0.000000000000000000, 0.000000000000000000 ) ) ;
#87 = PERSON_AND_ORGANIZATION_ROLE ( 'design_supplier' ) ;
#88 = PERSON_AND_ORGANIZATION ( #100, #79 ) ;
#89 = ORIENTED_EDGE ( 'NONE', *, *, #167, .F. ) ;
#90 = SECURITY_CLASSIFICATION_LEVEL ( 'unclassified' ) ;
#91 = CIRCLE ( 'NONE', #124, 12.69999999999999929 ) ;
#92 = CC_DESIGN_PERSON_AND_ORGANIZATION_ASSIGNMENT ( #29, #159, ( #8 ) ) ;
#93 = CIRCLE ( 'NONE', #98, 12.69999999999999929 ) ;
#94 = ORIENTED_EDGE ( 'NONE', *, *, #84, .T. ) ;
#95 = CARTESIAN_POINT ( 'NONE',  ( 1.500000000000000000, 0.000000000000000000, 12.69999999999999929 ) ) ;
#96 = PLANE ( 'NONE',  #104 ) ;
#97 = PERSON_AND_ORGANIZATION_ROLE ( 'creator' ) ;
#98 = AXIS2_PLACEMENT_3D ( 'NONE', #114, #125, #101 ) ;
#99 = LINE ( 'NONE', #164, #12 ) ;
#100 = PERSON ( 'UNSPECIFIED', 'UNSPECIFIED', 'UNSPECIFIED', ('UNSPECIFIED'), ('UNSPECIFIED'), ('UNSPECIFIED') ) ;
#101 = DIRECTION ( 'NONE',  ( 0.000000000000000000, 0.000000000000000000, -1.000000000000000000 ) ) ;
#102 = ADVANCED_FACE ( 'NONE', ( #50 ), #96, .F. ) ;
#103 =( NAMED_UNIT ( * ) PLANE_ANGLE_UNIT ( ) SI_UNIT ( $, .RADIAN. ) );
#104 = AXIS2_PLACEMENT_3D ( 'NONE', #126, #14, #66 ) ;
#105 = COORDINATED_UNIVERSAL_TIME_OFFSET ( 5, 0, .BEHIND. ) ;
#106 = APPROVAL_ROLE ( '' ) ;
#107 = EDGE_LOOP ( 'NONE', ( #134, #35, #121, #146 ) ) ;
#108 = APPROVAL_ROLE ( '' ) ;
#109 = VERTEX_POINT ( 'NONE', #166 ) ;
#110 = EDGE_CURVE ( 'NONE', #145, #75, #93, .T. ) ;
#111 = LOCAL_TIME ( 13, 18, 31.00000000000000000, #38 ) ;
#112 = APPROVAL_PERSON_ORGANIZATION ( #168, #123, #106 ) ;
#113 = APPROVAL_STATUS ( 'not_yet_approved' ) ;
#114 = CARTESIAN_POINT ( 'NONE',  ( -1.500000000000000000, 0.000000000000000000, 0.000000000000000000 ) ) ;
#115 = CIRCLE ( 'NONE', #1, 12.69999999999999929 ) ;
#116 = DIRECTION ( 'NONE',  ( -1.000000000000000000, -0.000000000000000000, -0.000000000000000000 ) ) ;
#117 = CC_DESIGN_APPROVAL ( #169, ( #77 ) ) ;
#118 = APPROVAL_DATE_TIME ( #143, #123 ) ;
#119 = DIRECTION ( 'NONE',  ( 0.000000000000000000, 0.000000000000000000, 1.000000000000000000 ) ) ;
#120 = CC_DESIGN_PERSON_AND_ORGANIZATION_ASSIGNMENT ( #68, #54, ( #24 ) ) ;
#121 = ORIENTED_EDGE ( 'NONE', *, *, #149, .T. ) ;
#122 = AXIS2_PLACEMENT_3D ( 'NONE', #56, #148, #152 ) ;
#123 = APPROVAL ( #59, 'UNSPECIFIED' ) ;
#124 = AXIS2_PLACEMENT_3D ( 'NONE', #78, #83, #140 ) ;
#125 = DIRECTION ( 'NONE',  ( 1.000000000000000000, 0.000000000000000000, 0.000000000000000000 ) ) ;
#126 = CARTESIAN_POINT ( 'NONE',  ( -1.500000000000000000, 0.000000000000000000, 0.000000000000000000 ) ) ;
#127 = PERSON_AND_ORGANIZATION_ROLE ( 'classification_officer' ) ;
#128 = DATE_AND_TIME ( #130, #44 ) ;
#129 = ORIENTED_EDGE ( 'NONE', *, *, #149, .F. ) ;
#130 = CALENDAR_DATE ( 2022, 11, 3 ) ;
#131 = DIRECTION ( 'NONE',  ( -1.000000000000000000, -0.000000000000000000, -0.000000000000000000 ) ) ;
#132 = CC_DESIGN_DATE_AND_TIME_ASSIGNMENT ( #128, #6, ( #77 ) ) ;
#133 = ORIENTED_EDGE ( 'NONE', *, *, #21, .T. ) ;
#134 = ORIENTED_EDGE ( 'NONE', *, *, #136, .F. ) ;
#135 = EDGE_LOOP ( 'NONE', ( #133, #10 ) ) ;
#136 = EDGE_CURVE ( 'NONE', #46, #109, #162, .T. ) ;
#137 = PRODUCT_RELATED_PRODUCT_CATEGORY ( 'detail', '', ( #24 ) ) ;
#138 = DIRECTION ( 'NONE',  ( 1.000000000000000000, 0.000000000000000000, 0.000000000000000000 ) ) ;
#139 =( GEOMETRIC_REPRESENTATION_CONTEXT ( 3 ) GLOBAL_UNCERTAINTY_ASSIGNED_CONTEXT ( ( #16 ) ) GLOBAL_UNIT_ASSIGNED_CONTEXT ( ( #153, #103, #4 ) ) REPRESENTATION_CONTEXT ( 'NONE', 'WORKASPACE' ) );
#140 = DIRECTION ( 'NONE',  ( 0.000000000000000000, 0.000000000000000000, -1.000000000000000000 ) ) ;
#141 = COORDINATED_UNIVERSAL_TIME_OFFSET ( 5, 0, .BEHIND. ) ;
#142 = DIRECTION ( 'NONE',  ( 0.000000000000000000, 0.000000000000000000, -1.000000000000000000 ) ) ;
#143 = DATE_AND_TIME ( #31, #158 ) ;
#144 = DATE_AND_TIME ( #49, #37 ) ;
#145 = VERTEX_POINT ( 'NONE', #42 ) ;
#146 = ORIENTED_EDGE ( 'NONE', *, *, #84, .F. ) ;
#147 = APPROVAL_PERSON_ORGANIZATION ( #173, #169, #108 ) ;
#148 = DIRECTION ( 'NONE',  ( 1.000000000000000000, 0.000000000000000000, 0.000000000000000000 ) ) ;
#149 = EDGE_CURVE ( 'NONE', #75, #145, #91, .T. ) ;
#150 = CALENDAR_DATE ( 2022, 11, 3 ) ;
#151 = DATE_AND_TIME ( #81, #111 ) ;
#152 = DIRECTION ( 'NONE',  ( 0.000000000000000000, 0.000000000000000000, -1.000000000000000000 ) ) ;
#153 =( LENGTH_UNIT ( ) NAMED_UNIT ( * ) SI_UNIT ( .MILLI., .METRE. ) );
#154 = VECTOR ( 'NONE', #82, 1000.000000000000000 ) ;
#155 = CC_DESIGN_PERSON_AND_ORGANIZATION_ASSIGNMENT ( #39, #97, ( #69 ) ) ;
#156 = DIRECTION ( 'NONE',  ( 0.000000000000000000, 0.000000000000000000, -1.000000000000000000 ) ) ;
#157 = CARTESIAN_POINT ( 'NONE',  ( 1.500000000000000000, 1.555301434917138433E-15, -12.69999999999999929 ) ) ;
#158 = LOCAL_TIME ( 13, 18, 31.00000000000000000, #105 ) ;
#159 = PERSON_AND_ORGANIZATION_ROLE ( 'creator' ) ;
#160 = AXIS2_PLACEMENT_3D ( 'NONE', #67, #65, #3 ) ;
#161 = ADVANCED_FACE ( 'NONE', ( #58 ), #41, .T. ) ;
#162 = CIRCLE ( 'NONE', #22, 12.69999999999999929 ) ;
#163 = APPROVAL_ROLE ( '' ) ;
#164 = CARTESIAN_POINT ( 'NONE',  ( 1.500000000000000000, 1.555301434917138433E-15, -12.69999999999999929 ) ) ;
#165 = MECHANICAL_CONTEXT ( 'NONE', #30, 'mechanical' ) ;
#166 = CARTESIAN_POINT ( 'NONE',  ( 1.500000000000000000, 0.000000000000000000, 12.69999999999999929 ) ) ;
#167 = EDGE_CURVE ( 'NONE', #46, #75, #99, .T. ) ;
#168 = PERSON_AND_ORGANIZATION ( #100, #79 ) ;
#169 = APPROVAL ( #45, 'UNSPECIFIED' ) ;
#170 = PERSON_AND_ORGANIZATION ( #100, #79 ) ;
#171 = ADVANCED_BREP_SHAPE_REPRESENTATION ( 'Web Model 15403_15409', ( #28, #160 ), #139 ) ;
#172 = PLANE ( 'NONE',  #122 ) ;
#173 = PERSON_AND_ORGANIZATION ( #100, #79 ) ;
#174 = AXIS2_PLACEMENT_3D ( 'NONE', #74, #131, #119 ) ;
#175 = PRODUCT_DEFINITION_SHAPE ( 'NONE', 'NONE',  #69 ) ;
ENDSEC;
END-ISO-10303-21;
