ISO-10303-21;
HEADER;
FILE_DESCRIPTION (( 'STEP AP203' ),
    '1' );
FILE_NAME ('Web Model Ø5-75mm Indoor Hydrophobic Windows_36074.step',
    '2017-09-07T19:07:28',
    ( '' ),
    ( '' ),
    'SwSTEP 2.0',
    'SolidWorks 2016',
    '' );
FILE_SCHEMA (( 'CONFIG_CONTROL_DESIGN' ));
ENDSEC;

DATA;
#1 = DATE_AND_TIME ( #51, #73 ) ;
#2 = CC_DESIGN_APPROVAL ( #137, ( #70 ) ) ;
#3 = ADVANCED_FACE ( 'NONE', ( #129 ), #140, .T. ) ;
#4 = EDGE_LOOP ( 'NONE', ( #157, #91, #147, #165 ) ) ;
#5 = COORDINATED_UNIVERSAL_TIME_OFFSET ( 5, 0, .BEHIND. ) ;
#6 = CARTESIAN_POINT ( 'NONE',  ( -37.50000000000000700, 0.0000000000000000000, -0.5500000000000000400 ) ) ;
#7 = DIRECTION ( 'NONE',  ( -0.0000000000000000000, -0.0000000000000000000, -1.000000000000000000 ) ) ;
#8 = EDGE_LOOP ( 'NONE', ( #133, #102 ) ) ;
#9 = PERSON_AND_ORGANIZATION_ROLE ( 'design_supplier' ) ;
#10 = DIRECTION ( 'NONE',  ( 0.0000000000000000000, 0.0000000000000000000, 1.000000000000000000 ) ) ;
#11 =( NAMED_UNIT ( * ) SI_UNIT ( $, .STERADIAN. ) SOLID_ANGLE_UNIT ( ) );
#12 = APPROVAL ( #123, 'UNSPECIFIED' ) ;
#13 = ORIENTED_EDGE ( 'NONE', *, *, #74, .F. ) ;
#14 = DESIGN_CONTEXT ( 'detailed design', #58, 'design' ) ;
#15 = APPROVAL_PERSON_ORGANIZATION ( #156, #12, #153 ) ;
#16 = ADVANCED_FACE ( 'NONE', ( #77 ), #120, .F. ) ;
#17 = VERTEX_POINT ( 'NONE', #134 ) ;
#18 = CC_DESIGN_APPROVAL ( #83, ( #40 ) ) ;
#19 = LOCAL_TIME ( 15, 7, 28.00000000000000000, #24 ) ;
#20 = DIRECTION ( 'NONE',  ( 0.0000000000000000000, 0.0000000000000000000, 1.000000000000000000 ) ) ;
#21 = ORGANIZATION ( 'UNSPECIFIED', 'UNSPECIFIED', '' ) ;
#22 = CARTESIAN_POINT ( 'NONE',  ( 0.0000000000000000000, 0.0000000000000000000, 0.5500000000000000400 ) ) ;
#23 = DIRECTION ( 'NONE',  ( 1.000000000000000000, 0.0000000000000000000, 0.0000000000000000000 ) ) ;
#24 = COORDINATED_UNIVERSAL_TIME_OFFSET ( 5, 0, .BEHIND. ) ;
#25 = APPLICATION_CONTEXT ( 'configuration controlled 3d designs of mechanical parts and assemblies' ) ;
#26 = APPROVAL_STATUS ( 'not_yet_approved' ) ;
#27 = LOCAL_TIME ( 15, 7, 28.00000000000000000, #43 ) ;
#28 = CALENDAR_DATE ( 2017, 7, 9 ) ;
#29 = LINE ( 'NONE', #64, #132 ) ;
#30 = EDGE_CURVE ( 'NONE', #44, #17, #80, .T. ) ;
#31 = CARTESIAN_POINT ( 'NONE',  ( 0.0000000000000000000, 0.0000000000000000000, -0.5500000000000000400 ) ) ;
#32 = AXIS2_PLACEMENT_3D ( 'NONE', #22, #50, #101 ) ;
#33 = CARTESIAN_POINT ( 'NONE',  ( 37.50000000000000700, 4.592425496802575200E-015, 0.5500000000000000400 ) ) ;
#34 = PERSON_AND_ORGANIZATION ( #84, #21 ) ;
#35 = CARTESIAN_POINT ( 'NONE',  ( 0.0000000000000000000, 0.0000000000000000000, 0.5500000000000000400 ) ) ;
#36 = ADVANCED_FACE ( 'NONE', ( #46 ), #37, .T. ) ;
#37 = PLANE ( 'NONE',  #161 ) ;
#38 = CARTESIAN_POINT ( 'NONE',  ( 0.0000000000000000000, 0.0000000000000000000, 0.5500000000000000400 ) ) ;
#39 = SECURITY_CLASSIFICATION_LEVEL ( 'unclassified' ) ;
#40 = PRODUCT_DEFINITION_FORMATION_WITH_SPECIFIED_SOURCE ( 'ANY', '', #110, .NOT_KNOWN. ) ;
#41 = DATE_TIME_ROLE ( 'creation_date' ) ;
#42 = PERSON_AND_ORGANIZATION_ROLE ( 'classification_officer' ) ;
#43 = COORDINATED_UNIVERSAL_TIME_OFFSET ( 5, 0, .BEHIND. ) ;
#44 = VERTEX_POINT ( 'NONE', #6 ) ;
#45 = CC_DESIGN_PERSON_AND_ORGANIZATION_ASSIGNMENT ( #34, #42, ( #62 ) ) ;
#46 = FACE_OUTER_BOUND ( 'NONE', #8, .T. ) ;
#47 = CIRCLE ( 'NONE', #88, 37.50000000000000700 ) ;
#48 = VERTEX_POINT ( 'NONE', #162 ) ;
#49 = EDGE_CURVE ( 'NONE', #159, #48, #111, .T. ) ;
#50 = DIRECTION ( 'NONE',  ( -0.0000000000000000000, -0.0000000000000000000, -1.000000000000000000 ) ) ;
#51 = CALENDAR_DATE ( 2017, 7, 9 ) ;
#52 = CARTESIAN_POINT ( 'NONE',  ( 0.0000000000000000000, 0.0000000000000000000, -0.5500000000000000400 ) ) ;
#53 = CYLINDRICAL_SURFACE ( 'NONE', #96, 37.50000000000000700 ) ;
#54 = DIRECTION ( 'NONE',  ( 0.0000000000000000000, 0.0000000000000000000, 1.000000000000000000 ) ) ;
#55 = EDGE_LOOP ( 'NONE', ( #122, #13 ) ) ;
#56 = PRODUCT_RELATED_PRODUCT_CATEGORY ( 'detail', '', ( #110 ) ) ;
#57 = APPROVAL_STATUS ( 'not_yet_approved' ) ;
#58 = APPLICATION_CONTEXT ( 'configuration controlled 3d designs of mechanical parts and assemblies' ) ;
#59 = COORDINATED_UNIVERSAL_TIME_OFFSET ( 5, 0, .BEHIND. ) ;
#60 = EDGE_LOOP ( 'NONE', ( #109, #149, #89, #66 ) ) ;
#61 =( GEOMETRIC_REPRESENTATION_CONTEXT ( 3 ) GLOBAL_UNCERTAINTY_ASSIGNED_CONTEXT ( ( #99 ) ) GLOBAL_UNIT_ASSIGNED_CONTEXT ( ( #81, #151, #11 ) ) REPRESENTATION_CONTEXT ( 'NONE', 'WORKASPACE' ) );
#62 = SECURITY_CLASSIFICATION ( '', '', #39 ) ;
#63 = DIRECTION ( 'NONE',  ( 0.0000000000000000000, 0.0000000000000000000, 1.000000000000000000 ) ) ;
#64 = CARTESIAN_POINT ( 'NONE',  ( 37.50000000000000700, 4.592425496802575200E-015, 0.5500000000000000400 ) ) ;
#65 = PERSON_AND_ORGANIZATION ( #84, #21 ) ;
#66 = ORIENTED_EDGE ( 'NONE', *, *, #97, .F. ) ;
#67 = DATE_AND_TIME ( #158, #19 ) ;
#68 = EDGE_CURVE ( 'NONE', #159, #17, #29, .T. ) ;
#69 = PERSON_AND_ORGANIZATION_ROLE ( 'creator' ) ;
#70 = PRODUCT_DEFINITION ( 'UNKNOWN', '', #40, #14 ) ;
#71 = CLOSED_SHELL ( 'NONE', ( #72, #3, #36, #16 ) ) ;
#72 = ADVANCED_FACE ( 'NONE', ( #114 ), #53, .T. ) ;
#73 = LOCAL_TIME ( 15, 7, 28.00000000000000000, #118 ) ;
#74 = EDGE_CURVE ( 'NONE', #17, #44, #128, .T. ) ;
#75 = DIRECTION ( 'NONE',  ( 0.0000000000000000000, 0.0000000000000000000, 1.000000000000000000 ) ) ;
#76 = PERSON_AND_ORGANIZATION ( #84, #21 ) ;
#77 = FACE_OUTER_BOUND ( 'NONE', #55, .T. ) ;
#78 = DIRECTION ( 'NONE',  ( -0.0000000000000000000, -0.0000000000000000000, -1.000000000000000000 ) ) ;
#79 = CARTESIAN_POINT ( 'NONE',  ( 0.0000000000000000000, 0.0000000000000000000, 0.5500000000000000400 ) ) ;
#80 = CIRCLE ( 'NONE', #126, 37.50000000000000700 ) ;
#81 =( LENGTH_UNIT ( ) NAMED_UNIT ( * ) SI_UNIT ( .MILLI., .METRE. ) );
#82 = VECTOR ( 'NONE', #7, 1000.000000000000000 ) ;
#83 = APPROVAL ( #57, 'UNSPECIFIED' ) ;
#84 = PERSON ( 'UNSPECIFIED', 'UNSPECIFIED', 'UNSPECIFIED', ('UNSPECIFIED'), ('UNSPECIFIED'), ('UNSPECIFIED') ) ;
#85 = AXIS2_PLACEMENT_3D ( 'NONE', #35, #54, #146 ) ;
#86 = CALENDAR_DATE ( 2017, 7, 9 ) ;
#87 = LINE ( 'NONE', #94, #82 ) ;
#88 = AXIS2_PLACEMENT_3D ( 'NONE', #38, #124, #104 ) ;
#89 = ORIENTED_EDGE ( 'NONE', *, *, #74, .T. ) ;
#90 = CC_DESIGN_SECURITY_CLASSIFICATION ( #62, ( #40 ) ) ;
#91 = ORIENTED_EDGE ( 'NONE', *, *, #154, .F. ) ;
#92 = DIRECTION ( 'NONE',  ( -1.000000000000000000, 0.0000000000000000000, 0.0000000000000000000 ) ) ;
#93 = DATE_AND_TIME ( #28, #127 ) ;
#94 = CARTESIAN_POINT ( 'NONE',  ( -37.50000000000000700, 0.0000000000000000000, 0.5500000000000000400 ) ) ;
#95 = PERSON_AND_ORGANIZATION ( #84, #21 ) ;
#96 = AXIS2_PLACEMENT_3D ( 'NONE', #143, #78, #92 ) ;
#97 = EDGE_CURVE ( 'NONE', #48, #44, #87, .T. ) ;
#98 = APPROVAL_PERSON_ORGANIZATION ( #168, #137, #135 ) ;
#99 = UNCERTAINTY_MEASURE_WITH_UNIT (LENGTH_MEASURE( 1.000000000000000100E-005 ), #81, 'distance_accuracy_value', 'NONE');
#100 = CC_DESIGN_DATE_AND_TIME_ASSIGNMENT ( #1, #152, ( #62 ) ) ;
#101 = DIRECTION ( 'NONE',  ( -1.000000000000000000, 0.0000000000000000000, 0.0000000000000000000 ) ) ;
#102 = ORIENTED_EDGE ( 'NONE', *, *, #49, .T. ) ;
#103 = DIRECTION ( 'NONE',  ( 0.0000000000000000000, 0.0000000000000000000, 1.000000000000000000 ) ) ;
#104 = DIRECTION ( 'NONE',  ( 1.000000000000000000, 0.0000000000000000000, 0.0000000000000000000 ) ) ;
#105 = CC_DESIGN_PERSON_AND_ORGANIZATION_ASSIGNMENT ( #65, #9, ( #40 ) ) ;
#106 = APPLICATION_PROTOCOL_DEFINITION ( 'international standard', 'config_control_design', 1994, #25 ) ;
#107 = APPROVAL_DATE_TIME ( #139, #83 ) ;
#108 = CC_DESIGN_PERSON_AND_ORGANIZATION_ASSIGNMENT ( #113, #173, ( #110 ) ) ;
#109 = ORIENTED_EDGE ( 'NONE', *, *, #49, .F. ) ;
#110 = PRODUCT ( 'Web Model Ø5-75mm Indoor Hydrophobic Windows_36074', 'Web Model Ø5-75mm Indoor Hydrophobic Windows_36074', '', ( #148 ) ) ;
#111 = CIRCLE ( 'NONE', #85, 37.50000000000000700 ) ;
#112 = CC_DESIGN_APPROVAL ( #12, ( #62 ) ) ;
#113 = PERSON_AND_ORGANIZATION ( #84, #21 ) ;
#114 = FACE_OUTER_BOUND ( 'NONE', #60, .T. ) ;
#115 = AXIS2_PLACEMENT_3D ( 'NONE', #31, #20, #117 ) ;
#116 = ADVANCED_BREP_SHAPE_REPRESENTATION ( 'Web Model +5-75mm Indoor Hydrophobic Windows_36074', ( #150, #142 ), #61 ) ;
#117 = DIRECTION ( 'NONE',  ( 1.000000000000000000, 0.0000000000000000000, -0.0000000000000000000 ) ) ;
#118 = COORDINATED_UNIVERSAL_TIME_OFFSET ( 5, 0, .BEHIND. ) ;
#119 = CC_DESIGN_PERSON_AND_ORGANIZATION_ASSIGNMENT ( #160, #69, ( #40 ) ) ;
#120 = PLANE ( 'NONE',  #115 ) ;
#121 = CARTESIAN_POINT ( 'NONE',  ( 0.0000000000000000000, 0.0000000000000000000, 0.0000000000000000000 ) ) ;
#122 = ORIENTED_EDGE ( 'NONE', *, *, #30, .F. ) ;
#123 = APPROVAL_STATUS ( 'not_yet_approved' ) ;
#124 = DIRECTION ( 'NONE',  ( 0.0000000000000000000, 0.0000000000000000000, 1.000000000000000000 ) ) ;
#125 = APPLICATION_PROTOCOL_DEFINITION ( 'international standard', 'config_control_design', 1994, #58 ) ;
#126 = AXIS2_PLACEMENT_3D ( 'NONE', #52, #63, #171 ) ;
#127 = LOCAL_TIME ( 15, 7, 28.00000000000000000, #59 ) ;
#128 = CIRCLE ( 'NONE', #130, 37.50000000000000700 ) ;
#129 = FACE_OUTER_BOUND ( 'NONE', #4, .T. ) ;
#130 = AXIS2_PLACEMENT_3D ( 'NONE', #164, #103, #23 ) ;
#131 = APPROVAL_DATE_TIME ( #67, #12 ) ;
#132 = VECTOR ( 'NONE', #163, 1000.000000000000000 ) ;
#133 = ORIENTED_EDGE ( 'NONE', *, *, #154, .T. ) ;
#134 = CARTESIAN_POINT ( 'NONE',  ( 37.50000000000000700, 4.592425496802575200E-015, -0.5500000000000000400 ) ) ;
#135 = APPROVAL_ROLE ( '' ) ;
#136 = DIRECTION ( 'NONE',  ( 1.000000000000000000, 0.0000000000000000000, 0.0000000000000000000 ) ) ;
#137 = APPROVAL ( #26, 'UNSPECIFIED' ) ;
#138 = PERSON_AND_ORGANIZATION_ROLE ( 'creator' ) ;
#139 = DATE_AND_TIME ( #86, #27 ) ;
#140 = CYLINDRICAL_SURFACE ( 'NONE', #32, 37.50000000000000700 ) ;
#141 = LOCAL_TIME ( 15, 7, 28.00000000000000000, #5 ) ;
#142 = AXIS2_PLACEMENT_3D ( 'NONE', #121, #10, #136 ) ;
#143 = CARTESIAN_POINT ( 'NONE',  ( 0.0000000000000000000, 0.0000000000000000000, 0.5500000000000000400 ) ) ;
#144 = DIRECTION ( 'NONE',  ( 1.000000000000000000, 0.0000000000000000000, -0.0000000000000000000 ) ) ;
#145 = APPROVAL_DATE_TIME ( #175, #137 ) ;
#146 = DIRECTION ( 'NONE',  ( 1.000000000000000000, 0.0000000000000000000, 0.0000000000000000000 ) ) ;
#147 = ORIENTED_EDGE ( 'NONE', *, *, #97, .T. ) ;
#148 = MECHANICAL_CONTEXT ( 'NONE', #25, 'mechanical' ) ;
#149 = ORIENTED_EDGE ( 'NONE', *, *, #68, .T. ) ;
#150 = MANIFOLD_SOLID_BREP ( 'Boss-Extrude1', #71 ) ;
#151 =( NAMED_UNIT ( * ) PLANE_ANGLE_UNIT ( ) SI_UNIT ( $, .RADIAN. ) );
#152 = DATE_TIME_ROLE ( 'classification_date' ) ;
#153 = APPROVAL_ROLE ( '' ) ;
#154 = EDGE_CURVE ( 'NONE', #48, #159, #47, .T. ) ;
#155 = APPROVAL_ROLE ( '' ) ;
#156 = PERSON_AND_ORGANIZATION ( #84, #21 ) ;
#157 = ORIENTED_EDGE ( 'NONE', *, *, #68, .F. ) ;
#158 = CALENDAR_DATE ( 2017, 7, 9 ) ;
#159 = VERTEX_POINT ( 'NONE', #33 ) ;
#160 = PERSON_AND_ORGANIZATION ( #84, #21 ) ;
#161 = AXIS2_PLACEMENT_3D ( 'NONE', #79, #75, #144 ) ;
#162 = CARTESIAN_POINT ( 'NONE',  ( -37.50000000000000700, 0.0000000000000000000, 0.5500000000000000400 ) ) ;
#163 = DIRECTION ( 'NONE',  ( -0.0000000000000000000, -0.0000000000000000000, -1.000000000000000000 ) ) ;
#164 = CARTESIAN_POINT ( 'NONE',  ( 0.0000000000000000000, 0.0000000000000000000, -0.5500000000000000400 ) ) ;
#165 = ORIENTED_EDGE ( 'NONE', *, *, #30, .T. ) ;
#166 = PRODUCT_DEFINITION_SHAPE ( 'NONE', 'NONE',  #70 ) ;
#167 = CC_DESIGN_DATE_AND_TIME_ASSIGNMENT ( #93, #41, ( #70 ) ) ;
#168 = PERSON_AND_ORGANIZATION ( #84, #21 ) ;
#169 = SHAPE_DEFINITION_REPRESENTATION ( #166, #116 ) ;
#170 = CALENDAR_DATE ( 2017, 7, 9 ) ;
#171 = DIRECTION ( 'NONE',  ( 1.000000000000000000, 0.0000000000000000000, 0.0000000000000000000 ) ) ;
#172 = APPROVAL_PERSON_ORGANIZATION ( #95, #83, #155 ) ;
#173 = PERSON_AND_ORGANIZATION_ROLE ( 'design_owner' ) ;
#174 = CC_DESIGN_PERSON_AND_ORGANIZATION_ASSIGNMENT ( #76, #138, ( #70 ) ) ;
#175 = DATE_AND_TIME ( #170, #141 ) ;
ENDSEC;
END-ISO-10303-21;
