ISO-10303-21;
HEADER;
FILE_DESCRIPTION (( 'STEP AP203' ),
    '1' );
FILE_NAME ('Web Model 43636_20689.step',
    '2022-03-16T15:35:52',
    ( '' ),
    ( '' ),
    'SwSTEP 2.0',
    'SolidWorks 2021',
    '' );
FILE_SCHEMA (( 'CONFIG_CONTROL_DESIGN' ));
ENDSEC;

DATA;
#1 = PERSON_AND_ORGANIZATION_ROLE ( 'creator' ) ;
#2 = DIRECTION ( 'NONE',  ( 1.000000000000000000, 0.000000000000000000, 0.000000000000000000 ) ) ;
#3 = DIRECTION ( 'NONE',  ( 1.000000000000000000, 0.000000000000000000, 0.000000000000000000 ) ) ;
#4 = APPROVAL_PERSON_ORGANIZATION ( #119, #43, #107 ) ;
#5 = MANIFOLD_SOLID_BREP ( 'Boss-Extrude1', #94 ) ;
#6 = APPLICATION_CONTEXT ( 'configuration controlled 3d designs of mechanical parts and assemblies' ) ;
#7 = AXIS2_PLACEMENT_3D ( 'NONE', #72, #46, #140 ) ;
#8 = DIRECTION ( 'NONE',  ( 0.000000000000000000, 0.000000000000000000, 1.000000000000000000 ) ) ;
#9 = EDGE_CURVE ( 'NONE', #135, #166, #122, .T. ) ;
#10 = APPROVAL_PERSON_ORGANIZATION ( #144, #131, #93 ) ;
#11 = PERSON_AND_ORGANIZATION ( #103, #81 ) ;
#12 = DATE_AND_TIME ( #149, #120 ) ;
#13 = ORIENTED_EDGE ( 'NONE', *, *, #61, .F. ) ;
#14 = CARTESIAN_POINT ( 'NONE',  ( 0.000000000000000000, 0.000000000000000000, 0.5000000000000000000 ) ) ;
#15 = COORDINATED_UNIVERSAL_TIME_OFFSET ( 5, 0, .BEHIND. ) ;
#16 = APPLICATION_CONTEXT ( 'configuration controlled 3d designs of mechanical parts and assemblies' ) ;
#17 = ORIENTED_EDGE ( 'NONE', *, *, #97, .T. ) ;
#18 = CARTESIAN_POINT ( 'NONE',  ( 12.69999999999999929, 1.555301434917138433E-15, 0.5000000000000000000 ) ) ;
#19 =( NAMED_UNIT ( * ) PLANE_ANGLE_UNIT ( ) SI_UNIT ( $, .RADIAN. ) );
#20 = CIRCLE ( 'NONE', #31, 12.69999999999999929 ) ;
#21 = FACE_OUTER_BOUND ( 'NONE', #71, .T. ) ;
#22 = EDGE_CURVE ( 'NONE', #57, #166, #150, .T. ) ;
#23 = APPROVAL ( #65, 'UNSPECIFIED' ) ;
#24 = CC_DESIGN_PERSON_AND_ORGANIZATION_ASSIGNMENT ( #163, #1, ( #42 ) ) ;
#25 = PERSON_AND_ORGANIZATION ( #103, #81 ) ;
#26 = LOCAL_TIME ( 11, 35, 52.00000000000000000, #53 ) ;
#27 = ORIENTED_EDGE ( 'NONE', *, *, #61, .T. ) ;
#28 = COORDINATED_UNIVERSAL_TIME_OFFSET ( 5, 0, .BEHIND. ) ;
#29 = CARTESIAN_POINT ( 'NONE',  ( 0.000000000000000000, 0.000000000000000000, 0.5000000000000000000 ) ) ;
#30 = FACE_OUTER_BOUND ( 'NONE', #141, .T. ) ;
#31 = AXIS2_PLACEMENT_3D ( 'NONE', #116, #136, #85 ) ;
#32 = SHAPE_DEFINITION_REPRESENTATION ( #64, #50 ) ;
#33 = EDGE_LOOP ( 'NONE', ( #151, #13, #138, #159 ) ) ;
#34 =( GEOMETRIC_REPRESENTATION_CONTEXT ( 3 ) GLOBAL_UNCERTAINTY_ASSIGNED_CONTEXT ( ( #36 ) ) GLOBAL_UNIT_ASSIGNED_CONTEXT ( ( #153, #19, #87 ) ) REPRESENTATION_CONTEXT ( 'NONE', 'WORKASPACE' ) );
#35 = PLANE ( 'NONE',  #100 ) ;
#36 = UNCERTAINTY_MEASURE_WITH_UNIT (LENGTH_MEASURE( 1.000000000000000082E-05 ), #153, 'distance_accuracy_value', 'NONE');
#37 = SECURITY_CLASSIFICATION ( '', '', #82 ) ;
#38 = EDGE_CURVE ( 'NONE', #84, #57, #76, .T. ) ;
#39 = CALENDAR_DATE ( 2022, 16, 3 ) ;
#40 = AXIS2_PLACEMENT_3D ( 'NONE', #29, #127, #114 ) ;
#41 = ORIENTED_EDGE ( 'NONE', *, *, #22, .F. ) ;
#42 = PRODUCT_DEFINITION_FORMATION_WITH_SPECIFIED_SOURCE ( 'ANY', '', #104, .NOT_KNOWN. ) ;
#43 = APPROVAL ( #132, 'UNSPECIFIED' ) ;
#44 = CARTESIAN_POINT ( 'NONE',  ( 0.000000000000000000, 0.000000000000000000, 0.000000000000000000 ) ) ;
#45 = PERSON_AND_ORGANIZATION_ROLE ( 'classification_officer' ) ;
#46 = DIRECTION ( 'NONE',  ( 0.000000000000000000, 0.000000000000000000, 1.000000000000000000 ) ) ;
#47 = DATE_AND_TIME ( #98, #63 ) ;
#48 = CARTESIAN_POINT ( 'NONE',  ( -12.69999999999999929, 0.000000000000000000, 0.5000000000000000000 ) ) ;
#49 = ORIENTED_EDGE ( 'NONE', *, *, #38, .F. ) ;
#50 = ADVANCED_BREP_SHAPE_REPRESENTATION ( 'Web Model 43636_20689', ( #5, #89 ), #34 ) ;
#51 = DESIGN_CONTEXT ( 'detailed design', #16, 'design' ) ;
#52 = ADVANCED_FACE ( 'NONE', ( #96 ), #148, .T. ) ;
#53 = COORDINATED_UNIVERSAL_TIME_OFFSET ( 5, 0, .BEHIND. ) ;
#54 = APPROVAL_PERSON_ORGANIZATION ( #25, #23, #124 ) ;
#55 = DATE_AND_TIME ( #39, #145 ) ;
#56 = DIRECTION ( 'NONE',  ( -1.000000000000000000, 0.000000000000000000, 0.000000000000000000 ) ) ;
#57 = VERTEX_POINT ( 'NONE', #126 ) ;
#58 = PERSON_AND_ORGANIZATION ( #103, #81 ) ;
#59 = FACE_OUTER_BOUND ( 'NONE', #101, .T. ) ;
#60 = DIRECTION ( 'NONE',  ( -0.000000000000000000, -0.000000000000000000, -1.000000000000000000 ) ) ;
#61 = EDGE_CURVE ( 'NONE', #84, #135, #156, .T. ) ;
#62 = APPLICATION_PROTOCOL_DEFINITION ( 'international standard', 'config_control_design', 1994, #6 ) ;
#63 = LOCAL_TIME ( 11, 35, 52.00000000000000000, #115 ) ;
#64 = PRODUCT_DEFINITION_SHAPE ( 'NONE', 'NONE',  #74 ) ;
#65 = APPROVAL_STATUS ( 'not_yet_approved' ) ;
#66 = CIRCLE ( 'NONE', #155, 12.69999999999999929 ) ;
#67 = PERSON_AND_ORGANIZATION_ROLE ( 'design_owner' ) ;
#68 = ADVANCED_FACE ( 'NONE', ( #30 ), #152, .T. ) ;
#69 = PERSON_AND_ORGANIZATION_ROLE ( 'creator' ) ;
#70 = MECHANICAL_CONTEXT ( 'NONE', #6, 'mechanical' ) ;
#71 = EDGE_LOOP ( 'NONE', ( #41, #86 ) ) ;
#72 = CARTESIAN_POINT ( 'NONE',  ( 0.000000000000000000, 0.000000000000000000, 0.5000000000000000000 ) ) ;
#73 = DIRECTION ( 'NONE',  ( 0.000000000000000000, 0.000000000000000000, 1.000000000000000000 ) ) ;
#74 = PRODUCT_DEFINITION ( 'UNKNOWN', '', #42, #51 ) ;
#75 = CARTESIAN_POINT ( 'NONE',  ( 12.69999999999999929, 1.555301434917138433E-15, 0.5000000000000000000 ) ) ;
#76 = LINE ( 'NONE', #95, #128 ) ;
#77 = LOCAL_TIME ( 11, 35, 52.00000000000000000, #28 ) ;
#78 = CARTESIAN_POINT ( 'NONE',  ( 12.69999999999999929, 1.555301434917138433E-15, 0.000000000000000000 ) ) ;
#79 = CC_DESIGN_APPROVAL ( #131, ( #37 ) ) ;
#80 = APPROVAL_DATE_TIME ( #12, #131 ) ;
#81 = ORGANIZATION ( 'UNSPECIFIED', 'UNSPECIFIED', '' ) ;
#82 = SECURITY_CLASSIFICATION_LEVEL ( 'unclassified' ) ;
#83 = ORIENTED_EDGE ( 'NONE', *, *, #9, .T. ) ;
#84 = VERTEX_POINT ( 'NONE', #48 ) ;
#85 = DIRECTION ( 'NONE',  ( 1.000000000000000000, 0.000000000000000000, 0.000000000000000000 ) ) ;
#86 = ORIENTED_EDGE ( 'NONE', *, *, #88, .F. ) ;
#87 =( NAMED_UNIT ( * ) SI_UNIT ( $, .STERADIAN. ) SOLID_ANGLE_UNIT ( ) );
#88 = EDGE_CURVE ( 'NONE', #166, #57, #20, .T. ) ;
#89 = AXIS2_PLACEMENT_3D ( 'NONE', #92, #109, #143 ) ;
#90 = CALENDAR_DATE ( 2022, 16, 3 ) ;
#91 = DATE_TIME_ROLE ( 'classification_date' ) ;
#92 = CARTESIAN_POINT ( 'NONE',  ( 0.000000000000000000, 0.000000000000000000, 0.000000000000000000 ) ) ;
#93 = APPROVAL_ROLE ( '' ) ;
#94 = CLOSED_SHELL ( 'NONE', ( #68, #52, #112, #167 ) ) ;
#95 = CARTESIAN_POINT ( 'NONE',  ( -12.69999999999999929, 0.000000000000000000, 0.5000000000000000000 ) ) ;
#96 = FACE_OUTER_BOUND ( 'NONE', #33, .T. ) ;
#97 = EDGE_CURVE ( 'NONE', #135, #84, #66, .T. ) ;
#98 = CALENDAR_DATE ( 2022, 16, 3 ) ;
#99 = PLANE ( 'NONE',  #7 ) ;
#100 = AXIS2_PLACEMENT_3D ( 'NONE', #129, #8, #142 ) ;
#101 = EDGE_LOOP ( 'NONE', ( #27, #17 ) ) ;
#102 = PRODUCT_RELATED_PRODUCT_CATEGORY ( 'detail', '', ( #104 ) ) ;
#103 = PERSON ( 'UNSPECIFIED', 'UNSPECIFIED', 'UNSPECIFIED', ('UNSPECIFIED'), ('UNSPECIFIED'), ('UNSPECIFIED') ) ;
#104 = PRODUCT ( 'Web Model 43636_20689', 'Web Model 43636_20689', '', ( #70 ) ) ;
#105 = AXIS2_PLACEMENT_3D ( 'NONE', #164, #123, #56 ) ;
#106 = PERSON_AND_ORGANIZATION ( #103, #81 ) ;
#107 = APPROVAL_ROLE ( '' ) ;
#108 = AXIS2_PLACEMENT_3D ( 'NONE', #165, #60, #125 ) ;
#109 = DIRECTION ( 'NONE',  ( 0.000000000000000000, 0.000000000000000000, 1.000000000000000000 ) ) ;
#110 = DIRECTION ( 'NONE',  ( 0.000000000000000000, 0.000000000000000000, 1.000000000000000000 ) ) ;
#111 = ORIENTED_EDGE ( 'NONE', *, *, #97, .F. ) ;
#112 = ADVANCED_FACE ( 'NONE', ( #59 ), #99, .T. ) ;
#113 = APPROVAL_DATE_TIME ( #139, #23 ) ;
#114 = DIRECTION ( 'NONE',  ( 1.000000000000000000, 0.000000000000000000, 0.000000000000000000 ) ) ;
#115 = COORDINATED_UNIVERSAL_TIME_OFFSET ( 5, 0, .BEHIND. ) ;
#116 = CARTESIAN_POINT ( 'NONE',  ( 0.000000000000000000, 0.000000000000000000, 0.000000000000000000 ) ) ;
#117 = VECTOR ( 'NONE', #162, 1000.000000000000000 ) ;
#118 = AXIS2_PLACEMENT_3D ( 'NONE', #44, #73, #3 ) ;
#119 = PERSON_AND_ORGANIZATION ( #103, #81 ) ;
#120 = LOCAL_TIME ( 11, 35, 52.00000000000000000, #15 ) ;
#121 = DATE_AND_TIME ( #90, #26 ) ;
#122 = LINE ( 'NONE', #18, #117 ) ;
#123 = DIRECTION ( 'NONE',  ( -0.000000000000000000, -0.000000000000000000, -1.000000000000000000 ) ) ;
#124 = APPROVAL_ROLE ( '' ) ;
#125 = DIRECTION ( 'NONE',  ( -1.000000000000000000, 0.000000000000000000, 0.000000000000000000 ) ) ;
#126 = CARTESIAN_POINT ( 'NONE',  ( -12.69999999999999929, 0.000000000000000000, 0.000000000000000000 ) ) ;
#127 = DIRECTION ( 'NONE',  ( 0.000000000000000000, 0.000000000000000000, 1.000000000000000000 ) ) ;
#128 = VECTOR ( 'NONE', #175, 1000.000000000000000 ) ;
#129 = CARTESIAN_POINT ( 'NONE',  ( 0.000000000000000000, 0.000000000000000000, 0.000000000000000000 ) ) ;
#130 = APPLICATION_PROTOCOL_DEFINITION ( 'international standard', 'config_control_design', 1994, #16 ) ;
#131 = APPROVAL ( #134, 'UNSPECIFIED' ) ;
#132 = APPROVAL_STATUS ( 'not_yet_approved' ) ;
#133 = CC_DESIGN_PERSON_AND_ORGANIZATION_ASSIGNMENT ( #106, #67, ( #104 ) ) ;
#134 = APPROVAL_STATUS ( 'not_yet_approved' ) ;
#135 = VERTEX_POINT ( 'NONE', #75 ) ;
#136 = DIRECTION ( 'NONE',  ( 0.000000000000000000, 0.000000000000000000, 1.000000000000000000 ) ) ;
#137 = CC_DESIGN_DATE_AND_TIME_ASSIGNMENT ( #47, #91, ( #37 ) ) ;
#138 = ORIENTED_EDGE ( 'NONE', *, *, #38, .T. ) ;
#139 = DATE_AND_TIME ( #174, #77 ) ;
#140 = DIRECTION ( 'NONE',  ( 1.000000000000000000, 0.000000000000000000, -0.000000000000000000 ) ) ;
#141 = EDGE_LOOP ( 'NONE', ( #111, #83, #146, #49 ) ) ;
#142 = DIRECTION ( 'NONE',  ( 1.000000000000000000, 0.000000000000000000, -0.000000000000000000 ) ) ;
#143 = DIRECTION ( 'NONE',  ( 1.000000000000000000, 0.000000000000000000, 0.000000000000000000 ) ) ;
#144 = PERSON_AND_ORGANIZATION ( #103, #81 ) ;
#145 = LOCAL_TIME ( 11, 35, 52.00000000000000000, #170 ) ;
#146 = ORIENTED_EDGE ( 'NONE', *, *, #88, .T. ) ;
#147 = CC_DESIGN_PERSON_AND_ORGANIZATION_ASSIGNMENT ( #11, #69, ( #74 ) ) ;
#148 = CYLINDRICAL_SURFACE ( 'NONE', #108, 12.69999999999999929 ) ;
#149 = CALENDAR_DATE ( 2022, 16, 3 ) ;
#150 = CIRCLE ( 'NONE', #118, 12.69999999999999929 ) ;
#151 = ORIENTED_EDGE ( 'NONE', *, *, #9, .F. ) ;
#152 = CYLINDRICAL_SURFACE ( 'NONE', #105, 12.69999999999999929 ) ;
#153 =( LENGTH_UNIT ( ) NAMED_UNIT ( * ) SI_UNIT ( .MILLI., .METRE. ) );
#154 = CC_DESIGN_APPROVAL ( #43, ( #74 ) ) ;
#155 = AXIS2_PLACEMENT_3D ( 'NONE', #14, #110, #2 ) ;
#156 = CIRCLE ( 'NONE', #40, 12.69999999999999929 ) ;
#157 = PERSON_AND_ORGANIZATION_ROLE ( 'design_supplier' ) ;
#158 = DATE_TIME_ROLE ( 'creation_date' ) ;
#159 = ORIENTED_EDGE ( 'NONE', *, *, #22, .T. ) ;
#160 = PERSON_AND_ORGANIZATION ( #103, #81 ) ;
#161 = CC_DESIGN_DATE_AND_TIME_ASSIGNMENT ( #121, #158, ( #74 ) ) ;
#162 = DIRECTION ( 'NONE',  ( -0.000000000000000000, -0.000000000000000000, -1.000000000000000000 ) ) ;
#163 = PERSON_AND_ORGANIZATION ( #103, #81 ) ;
#164 = CARTESIAN_POINT ( 'NONE',  ( 0.000000000000000000, 0.000000000000000000, 0.5000000000000000000 ) ) ;
#165 = CARTESIAN_POINT ( 'NONE',  ( 0.000000000000000000, 0.000000000000000000, 0.5000000000000000000 ) ) ;
#166 = VERTEX_POINT ( 'NONE', #78 ) ;
#167 = ADVANCED_FACE ( 'NONE', ( #21 ), #35, .F. ) ;
#168 = CC_DESIGN_PERSON_AND_ORGANIZATION_ASSIGNMENT ( #160, #45, ( #37 ) ) ;
#169 = CC_DESIGN_PERSON_AND_ORGANIZATION_ASSIGNMENT ( #58, #157, ( #42 ) ) ;
#170 = COORDINATED_UNIVERSAL_TIME_OFFSET ( 5, 0, .BEHIND. ) ;
#171 = APPROVAL_DATE_TIME ( #55, #43 ) ;
#172 = CC_DESIGN_APPROVAL ( #23, ( #42 ) ) ;
#173 = CC_DESIGN_SECURITY_CLASSIFICATION ( #37, ( #42 ) ) ;
#174 = CALENDAR_DATE ( 2022, 16, 3 ) ;
#175 = DIRECTION ( 'NONE',  ( -0.000000000000000000, -0.000000000000000000, -1.000000000000000000 ) ) ;
ENDSEC;
END-ISO-10303-21;
