ISO-10303-21;
HEADER;
FILE_DESCRIPTION (( 'STEP AP214' ),
    '1' );
FILE_NAME ('4851-E0W.STEP',
    '2009-12-21T17:15:18',
    ( ' ' ),
    ( ' ' ),
    'SwSTEP 2.0',
    'SolidWorks 2009',
    '' );
FILE_SCHEMA (( 'AUTOMOTIVE_DESIGN' ));
ENDSEC;

DATA;
#1 = FILL_AREA_STYLE ('',( #14 ) ) ;
#2 = SURFACE_STYLE_FILL_AREA ( #1 ) ;
#3 = STYLED_ITEM ( 'NONE', ( #5 ), #20 ) ;
#4 = SURFACE_SIDE_STYLE ('',( #2 ) ) ;
#5 = PRESENTATION_STYLE_ASSIGNMENT (( #6 ) ) ;
#6 = SURFACE_STYLE_USAGE ( .BOTH. , #4 ) ;
#7 =( LENGTH_UNIT ( ) NAMED_UNIT ( * ) SI_UNIT ( .MILLI., .METRE. ) );
#8 = PRESENTATION_LAYER_ASSIGNMENT (  '', '', ( #3 ) ) ;
#9 = MECHANICAL_DESIGN_GEOMETRIC_PRESENTATION_REPRESENTATION (  '', ( #3 ), #13 ) ;
#10 =( NAMED_UNIT ( * ) PLANE_ANGLE_UNIT ( ) SI_UNIT ( $, .RADIAN. ) );
#11 = UNCERTAINTY_MEASURE_WITH_UNIT (LENGTH_MEASURE( 1.000000000000000100E-005 ), #7, 'distance_accuracy_value', 'NONE');
#12 =( NAMED_UNIT ( * ) SI_UNIT ( $, .STERADIAN. ) SOLID_ANGLE_UNIT ( ) );
#13 =( GEOMETRIC_REPRESENTATION_CONTEXT ( 3 ) GLOBAL_UNCERTAINTY_ASSIGNED_CONTEXT ( ( #11 ) ) GLOBAL_UNIT_ASSIGNED_CONTEXT ( ( #7, #10, #12 ) ) REPRESENTATION_CONTEXT ( 'NONE', 'WORKASPACE' ) );
#14 = FILL_AREA_STYLE_COLOUR ( '', #57 ) ;
#15 = CARTESIAN_POINT ( 'NONE',  ( 0.0000000000000000000, 0.0000000000000000000, -0.02891466103421315400 ) ) ;
#16 = AXIS2_PLACEMENT_3D ( 'NONE', #15, #59, #58 ) ;
#17 = CIRCLE ( 'NONE', #16, 12.70000000000000100 ) ;
#18 = FACE_OUTER_BOUND ( 'NONE', #54, .T. ) ;
#19 = EDGE_CURVE ( 'NONE', #60, #31, #17, .T. ) ;
#20 = ADVANCED_FACE ( 'NONE', ( #18 ), #142, .T. ) ;
#21 = ORIENTED_EDGE ( 'NONE', *, *, #71, .T. ) ;
#22 = ORIENTED_EDGE ( 'NONE', *, *, #67, .T. ) ;
#23 = ORIENTED_EDGE ( 'NONE', *, *, #53, .T. ) ;
#24 = ADVANCED_FACE ( 'NONE', ( #100 ), #135, .T. ) ;
#25 = EDGE_CURVE ( 'NONE', #60, #62, #123, .T. ) ;
#26 = ORIENTED_EDGE ( 'NONE', *, *, #25, .F. ) ;
#27 = ORIENTED_EDGE ( 'NONE', *, *, #64, .T. ) ;
#28 = ADVANCED_FACE ( 'NONE', ( #104 ), #120, .F. ) ;
#29 = ADVANCED_FACE ( 'NONE', ( #149 ), #195, .T. ) ;
#30 =( GEOMETRIC_REPRESENTATION_CONTEXT ( 3 ) GLOBAL_UNCERTAINTY_ASSIGNED_CONTEXT ( ( #265 ) ) GLOBAL_UNIT_ASSIGNED_CONTEXT ( ( #291, #271, #270 ) ) REPRESENTATION_CONTEXT ( 'NONE', 'WORKASPACE' ) );
#31 = VERTEX_POINT ( 'NONE', #220 ) ;
#32 = ORIENTED_EDGE ( 'NONE', *, *, #33, .F. ) ;
#33 = EDGE_CURVE ( 'NONE', #34, #35, #199, .T. ) ;
#34 = VERTEX_POINT ( 'NONE', #194 ) ;
#35 = VERTEX_POINT ( 'NONE', #204 ) ;
#36 = ORIENTED_EDGE ( 'NONE', *, *, #40, .F. ) ;
#37 = ORIENTED_EDGE ( 'NONE', *, *, #81, .F. ) ;
#38 = VERTEX_POINT ( 'NONE', #173 ) ;
#39 = EDGE_LOOP ( 'NONE', ( #48, #78, #23, #26 ) ) ;
#40 = EDGE_CURVE ( 'NONE', #79, #60, #170, .T. ) ;
#41 = ORIENTED_EDGE ( 'NONE', *, *, #42, .T. ) ;
#42 = EDGE_CURVE ( 'NONE', #34, #43, #197, .T. ) ;
#43 = VERTEX_POINT ( 'NONE', #189 ) ;
#44 = ORIENTED_EDGE ( 'NONE', *, *, #67, .F. ) ;
#45 = CLOSED_SHELL ( 'NONE', ( #83, #20, #66, #24, #29, #28 ) ) ;
#46 = ORIENTED_EDGE ( 'NONE', *, *, #90, .F. ) ;
#47 = ORIENTED_EDGE ( 'NONE', *, *, #76, .T. ) ;
#48 = ORIENTED_EDGE ( 'NONE', *, *, #19, .T. ) ;
#49 = EDGE_LOOP ( 'NONE', ( #32, #41, #44, #69 ) ) ;
#50 = ORIENTED_EDGE ( 'NONE', *, *, #42, .F. ) ;
#51 = ORIENTED_EDGE ( 'NONE', *, *, #71, .F. ) ;
#52 = ORIENTED_EDGE ( 'NONE', *, *, #70, .T. ) ;
#53 = EDGE_CURVE ( 'NONE', #38, #62, #233, .T. ) ;
#54 = EDGE_LOOP ( 'NONE', ( #52, #85, #47, #80, #36, #37 ) ) ;
#55 = CARTESIAN_POINT ( 'NONE',  ( 12.70000000000000100, 0.0000000000000000000, 9.283642497400633100 ) ) ;
#56 = LINE ( 'NONE', #55, #269 ) ;
#57 = COLOUR_RGB ( '',0.9568627450980391500, 0.9490196078431372100, 0.9607843137254902200 ) ;
#58 = DIRECTION ( 'NONE',  ( 1.000000000000000000, 0.0000000000000000000, 0.0000000000000000000 ) ) ;
#59 = DIRECTION ( 'NONE',  ( -0.0000000000000000000, -0.0000000000000000000, 1.000000000000000000 ) ) ;
#60 = VERTEX_POINT ( 'NONE', #206 ) ;
#61 = EDGE_LOOP ( 'NONE', ( #65, #27, #63, #86 ) ) ;
#62 = VERTEX_POINT ( 'NONE', #205 ) ;
#63 = ORIENTED_EDGE ( 'NONE', *, *, #40, .T. ) ;
#64 = EDGE_CURVE ( 'NONE', #38, #79, #211, .T. ) ;
#65 = ORIENTED_EDGE ( 'NONE', *, *, #53, .F. ) ;
#66 = ADVANCED_FACE ( 'NONE', ( #212 ), #237, .T. ) ;
#67 = EDGE_CURVE ( 'NONE', #68, #43, #216, .T. ) ;
#68 = VERTEX_POINT ( 'NONE', #191 ) ;
#69 = ORIENTED_EDGE ( 'NONE', *, *, #70, .F. ) ;
#70 = EDGE_CURVE ( 'NONE', #35, #68, #167, .T. ) ;
#71 = EDGE_CURVE ( 'NONE', #77, #34, #224, .T. ) ;
#72 = EDGE_LOOP ( 'NONE', ( #89, #21, #73, #75, #87, #88 ) ) ;
#73 = ORIENTED_EDGE ( 'NONE', *, *, #33, .T. ) ;
#74 = EDGE_LOOP ( 'NONE', ( #50, #51, #46, #22 ) ) ;
#75 = ORIENTED_EDGE ( 'NONE', *, *, #81, .T. ) ;
#76 = EDGE_CURVE ( 'NONE', #77, #31, #180, .T. ) ;
#77 = VERTEX_POINT ( 'NONE', #231 ) ;
#78 = ORIENTED_EDGE ( 'NONE', *, *, #91, .T. ) ;
#79 = VERTEX_POINT ( 'NONE', #230 ) ;
#80 = ORIENTED_EDGE ( 'NONE', *, *, #19, .F. ) ;
#81 = EDGE_CURVE ( 'NONE', #35, #79, #56, .T. ) ;
#82 = MANIFOLD_SOLID_BREP ( 'NONE', #45 ) ;
#83 = ADVANCED_FACE ( 'NONE', ( #278 ), #280, .F. ) ;
#84 = ADVANCED_BREP_SHAPE_REPRESENTATION ( '4851-E0W', ( #82, #305 ), #30 ) ;
#85 = ORIENTED_EDGE ( 'NONE', *, *, #90, .T. ) ;
#86 = ORIENTED_EDGE ( 'NONE', *, *, #25, .T. ) ;
#87 = ORIENTED_EDGE ( 'NONE', *, *, #64, .F. ) ;
#88 = ORIENTED_EDGE ( 'NONE', *, *, #91, .F. ) ;
#89 = ORIENTED_EDGE ( 'NONE', *, *, #76, .F. ) ;
#90 = EDGE_CURVE ( 'NONE', #68, #77, #241, .T. ) ;
#91 = EDGE_CURVE ( 'NONE', #31, #38, #286, .T. ) ;
#92 =( GEOMETRIC_REPRESENTATION_CONTEXT ( 3 ) GLOBAL_UNCERTAINTY_ASSIGNED_CONTEXT ( ( #122 ) ) GLOBAL_UNIT_ASSIGNED_CONTEXT ( ( #111, #105, #141 ) ) REPRESENTATION_CONTEXT ( 'NONE', 'WORKASPACE' ) );
#93 =( NAMED_UNIT ( * ) PLANE_ANGLE_UNIT ( ) SI_UNIT ( $, .RADIAN. ) );
#94 = SURFACE_SIDE_STYLE ('',( #95 ) ) ;
#95 = SURFACE_STYLE_FILL_AREA ( #96 ) ;
#96 = FILL_AREA_STYLE ('',( #144 ) ) ;
#97 = COLOUR_RGB ( '',0.9568627450980391500, 0.9490196078431372100, 0.9607843137254902200 ) ;
#98 =( NAMED_UNIT ( * ) SI_UNIT ( $, .STERADIAN. ) SOLID_ANGLE_UNIT ( ) );
#99 =( GEOMETRIC_REPRESENTATION_CONTEXT ( 3 ) GLOBAL_UNCERTAINTY_ASSIGNED_CONTEXT ( ( #157 ) ) GLOBAL_UNIT_ASSIGNED_CONTEXT ( ( #152, #139, #98 ) ) REPRESENTATION_CONTEXT ( 'NONE', 'WORKASPACE' ) );
#100 = FACE_OUTER_BOUND ( 'NONE', #61, .T. ) ;
#101 = DIRECTION ( 'NONE',  ( 1.000000000000000000, 0.0000000000000000000, 0.0000000000000000000 ) ) ;
#102 = CARTESIAN_POINT ( 'NONE',  ( 0.0000000000000000000, 0.0000000000000000000, -38.59146125744042200 ) ) ;
#103 = AXIS2_PLACEMENT_3D ( 'NONE', #102, #146, #145 ) ;
#104 = FACE_OUTER_BOUND ( 'NONE', #74, .T. ) ;
#105 =( NAMED_UNIT ( * ) PLANE_ANGLE_UNIT ( ) SI_UNIT ( $, .RADIAN. ) );
#106 = CARTESIAN_POINT ( 'NONE',  ( 0.0000000000000000000, 0.0000000000000000000, 9.283642497400633100 ) ) ;
#107 = PRESENTATION_LAYER_ASSIGNMENT (  '', '', ( #108 ) ) ;
#108 = STYLED_ITEM ( 'NONE', ( #109 ), #28 ) ;
#109 = PRESENTATION_STYLE_ASSIGNMENT (( #110 ) ) ;
#110 = SURFACE_STYLE_USAGE ( .BOTH. , #94 ) ;
#111 =( LENGTH_UNIT ( ) NAMED_UNIT ( * ) SI_UNIT ( .MILLI., .METRE. ) );
#112 = PRESENTATION_LAYER_ASSIGNMENT (  '', '', ( #155 ) ) ;
#113 = SURFACE_STYLE_FILL_AREA ( #114 ) ;
#114 = FILL_AREA_STYLE ('',( #115 ) ) ;
#115 = FILL_AREA_STYLE_COLOUR ( '', #148 ) ;
#116 = DIRECTION ( 'NONE',  ( 0.0000000000000000000, 1.000000000000000000, 0.0000000000000000000 ) ) ;
#117 = DIRECTION ( 'NONE',  ( -1.000000000000000000, 0.0000000000000000000, 0.0000000000000000000 ) ) ;
#118 = CARTESIAN_POINT ( 'NONE',  ( 0.0000000000000000000, 0.0000000000000000000, -108.1514612574404300 ) ) ;
#119 = AXIS2_PLACEMENT_3D ( 'NONE', #118, #117, #116 ) ;
#120 = SPHERICAL_SURFACE ( 'NONE', #119, 106.9000000000000100 ) ;
#121 =( GEOMETRIC_REPRESENTATION_CONTEXT ( 3 ) GLOBAL_UNCERTAINTY_ASSIGNED_CONTEXT ( ( #132 ) ) GLOBAL_UNIT_ASSIGNED_CONTEXT ( ( #124, #93, #133 ) ) REPRESENTATION_CONTEXT ( 'NONE', 'WORKASPACE' ) );
#122 = UNCERTAINTY_MEASURE_WITH_UNIT (LENGTH_MEASURE( 1.000000000000000100E-005 ), #111, 'distance_accuracy_value', 'NONE');
#123 = CIRCLE ( 'NONE', #103, 40.59999999999999400 ) ;
#124 =( LENGTH_UNIT ( ) NAMED_UNIT ( * ) SI_UNIT ( .MILLI., .METRE. ) );
#125 = MECHANICAL_DESIGN_GEOMETRIC_PRESENTATION_REPRESENTATION (  '', ( #155 ), #92 ) ;
#126 = PRESENTATION_LAYER_ASSIGNMENT (  '', '', ( #127 ) ) ;
#127 = STYLED_ITEM ( 'NONE', ( #128 ), #29 ) ;
#128 = PRESENTATION_STYLE_ASSIGNMENT (( #129 ) ) ;
#129 = SURFACE_STYLE_USAGE ( .BOTH. , #130 ) ;
#130 = SURFACE_SIDE_STYLE ('',( #113 ) ) ;
#131 = FILL_AREA_STYLE_COLOUR ( '', #147 ) ;
#132 = UNCERTAINTY_MEASURE_WITH_UNIT (LENGTH_MEASURE( 1.000000000000000100E-005 ), #124, 'distance_accuracy_value', 'NONE');
#133 =( NAMED_UNIT ( * ) SI_UNIT ( $, .STERADIAN. ) SOLID_ANGLE_UNIT ( ) );
#134 = AXIS2_PLACEMENT_3D ( 'NONE', #138, #137, #136 ) ;
#135 = SPHERICAL_SURFACE ( 'NONE', #134, 40.60000000000000100 ) ;
#136 = DIRECTION ( 'NONE',  ( 0.0000000000000000000, 1.000000000000000000, 0.0000000000000000000 ) ) ;
#137 = DIRECTION ( 'NONE',  ( -1.000000000000000000, 0.0000000000000000000, 0.0000000000000000000 ) ) ;
#138 = CARTESIAN_POINT ( 'NONE',  ( 0.0000000000000000000, 0.0000000000000000000, -38.59146125744042200 ) ) ;
#139 =( NAMED_UNIT ( * ) PLANE_ANGLE_UNIT ( ) SI_UNIT ( $, .RADIAN. ) );
#140 = AXIS2_PLACEMENT_3D ( 'NONE', #106, #143, #101 ) ;
#141 =( NAMED_UNIT ( * ) SI_UNIT ( $, .STERADIAN. ) SOLID_ANGLE_UNIT ( ) );
#142 = CYLINDRICAL_SURFACE ( 'NONE', #140, 12.70000000000000100 ) ;
#143 = DIRECTION ( 'NONE',  ( -0.0000000000000000000, -0.0000000000000000000, 1.000000000000000000 ) ) ;
#144 = FILL_AREA_STYLE_COLOUR ( '', #97 ) ;
#145 = DIRECTION ( 'NONE',  ( 0.0000000000000000000, 0.0000000000000000000, -1.000000000000000000 ) ) ;
#146 = DIRECTION ( 'NONE',  ( 1.000000000000000000, 0.0000000000000000000, 0.0000000000000000000 ) ) ;
#147 = COLOUR_RGB ( '',0.9568627450980391500, 0.9490196078431372100, 0.9607843137254902200 ) ;
#148 = COLOUR_RGB ( '',0.9568627450980391500, 0.9490196078431372100, 0.9607843137254902200 ) ;
#149 = FACE_OUTER_BOUND ( 'NONE', #72, .T. ) ;
#150 = SURFACE_STYLE_FILL_AREA ( #151 ) ;
#151 = FILL_AREA_STYLE ('',( #131 ) ) ;
#152 =( LENGTH_UNIT ( ) NAMED_UNIT ( * ) SI_UNIT ( .MILLI., .METRE. ) );
#153 = MECHANICAL_DESIGN_GEOMETRIC_PRESENTATION_REPRESENTATION (  '', ( #127 ), #99 ) ;
#154 = MECHANICAL_DESIGN_GEOMETRIC_PRESENTATION_REPRESENTATION (  '', ( #108 ), #121 ) ;
#155 = STYLED_ITEM ( 'NONE', ( #156 ), #24 ) ;
#156 = PRESENTATION_STYLE_ASSIGNMENT (( #158 ) ) ;
#157 = UNCERTAINTY_MEASURE_WITH_UNIT (LENGTH_MEASURE( 1.000000000000000100E-005 ), #152, 'distance_accuracy_value', 'NONE');
#158 = SURFACE_STYLE_USAGE ( .BOTH. , #159 ) ;
#159 = SURFACE_SIDE_STYLE ('',( #150 ) ) ;
#160 = DIRECTION ( 'NONE',  ( 1.000000000000000000, 0.0000000000000000000, 0.0000000000000000000 ) ) ;
#161 = SURFACE_STYLE_FILL_AREA ( #162 ) ;
#162 = FILL_AREA_STYLE ('',( #234 ) ) ;
#163 = COLOUR_RGB ( '',0.9568627450980391500, 0.9490196078431372100, 0.9607843137254902200 ) ;
#164 = DIRECTION ( 'NONE',  ( 1.000000000000000000, 0.0000000000000000000, 0.0000000000000000000 ) ) ;
#165 = DIRECTION ( 'NONE',  ( -0.0000000000000000000, -0.0000000000000000000, 1.000000000000000000 ) ) ;
#166 = AXIS2_PLACEMENT_3D ( 'NONE', #181, #165, #164 ) ;
#167 = CIRCLE ( 'NONE', #166, 12.70000000000000100 ) ;
#168 =( NAMED_UNIT ( * ) PLANE_ANGLE_UNIT ( ) SI_UNIT ( $, .RADIAN. ) );
#169 = AXIS2_PLACEMENT_3D ( 'NONE', #203, #202, #228 ) ;
#170 = CIRCLE ( 'NONE', #169, 12.70000000000000100 ) ;
#171 = DIRECTION ( 'NONE',  ( 0.0000000000000000000, 1.000000000000000000, 0.0000000000000000000 ) ) ;
#172 = CARTESIAN_POINT ( 'NONE',  ( 0.0000000000000000000, 0.0000000000000000000, 9.283642497400633100 ) ) ;
#173 = CARTESIAN_POINT ( 'NONE',  ( -1.555250069354419300E-015, -12.70000000000000100, -0.02891466103421228700 ) ) ;
#174 = CARTESIAN_POINT ( 'NONE',  ( 0.0000000000000000000, 0.0000000000000000000, -2.008538742559577100 ) ) ;
#175 = DIRECTION ( 'NONE',  ( -1.224606353822377300E-016, -1.000000000000000000, 0.0000000000000000000 ) ) ;
#176 =( GEOMETRIC_REPRESENTATION_CONTEXT ( 3 ) GLOBAL_UNCERTAINTY_ASSIGNED_CONTEXT ( ( #239 ) ) GLOBAL_UNIT_ASSIGNED_CONTEXT ( ( #238, #168, #213 ) ) REPRESENTATION_CONTEXT ( 'NONE', 'WORKASPACE' ) );
#177 = DIRECTION ( 'NONE',  ( -0.0000000000000000000, -0.0000000000000000000, 1.000000000000000000 ) ) ;
#178 = VECTOR ( 'NONE', #177, 1000.000000000000000 ) ;
#179 = CARTESIAN_POINT ( 'NONE',  ( -12.70000000000000100, 1.555250069354419300E-015, 9.283642497400633100 ) ) ;
#180 = LINE ( 'NONE', #179, #178 ) ;
#181 = CARTESIAN_POINT ( 'NONE',  ( 0.0000000000000000000, 0.0000000000000000000, -2.008538742559577100 ) ) ;
#182 = DIRECTION ( 'NONE',  ( -0.0000000000000000000, -0.0000000000000000000, 1.000000000000000000 ) ) ;
#183 = CARTESIAN_POINT ( 'NONE',  ( 0.0000000000000000000, 0.0000000000000000000, -0.02891466103421315400 ) ) ;
#184 = AXIS2_PLACEMENT_3D ( 'NONE', #183, #182, #235 ) ;
#185 = PRESENTATION_STYLE_ASSIGNMENT (( #186 ) ) ;
#186 = SURFACE_STYLE_USAGE ( .BOTH. , #187 ) ;
#187 = SURFACE_SIDE_STYLE ('',( #161 ) ) ;
#188 = DIRECTION ( 'NONE',  ( 1.000000000000000000, 0.0000000000000000000, 0.0000000000000000000 ) ) ;
#189 = CARTESIAN_POINT ( 'NONE',  ( 0.0000000000000000000, 6.545520961180607400E-015, -1.251461257440425400 ) ) ;
#190 = DIRECTION ( 'NONE',  ( 1.000000000000000000, 0.0000000000000000000, 0.0000000000000000000 ) ) ;
#191 = CARTESIAN_POINT ( 'NONE',  ( 0.0000000000000000000, 12.69999999999999200, -2.008538742559568200 ) ) ;
#192 = DIRECTION ( 'NONE',  ( 0.0000000000000000000, 0.0000000000000000000, -1.000000000000000000 ) ) ;
#193 = DIRECTION ( 'NONE',  ( 1.000000000000000000, -0.0000000000000000000, 0.0000000000000000000 ) ) ;
#194 = CARTESIAN_POINT ( 'NONE',  ( -1.555250069354418500E-015, -12.69999999999999200, -2.008538742559568200 ) ) ;
#195 = CYLINDRICAL_SURFACE ( 'NONE', #219, 12.70000000000000100 ) ;
#196 = AXIS2_PLACEMENT_3D ( 'NONE', #226, #225, #175 ) ;
#197 = CIRCLE ( 'NONE', #196, 106.9000000000000100 ) ;
#198 = DIRECTION ( 'NONE',  ( -0.0000000000000000000, -0.0000000000000000000, 1.000000000000000000 ) ) ;
#199 = CIRCLE ( 'NONE', #227, 12.70000000000000100 ) ;
#200 = DIRECTION ( 'NONE',  ( -1.000000000000000000, 0.0000000000000000000, 0.0000000000000000000 ) ) ;
#201 = AXIS2_PLACEMENT_3D ( 'NONE', #236, #200, #171 ) ;
#202 = DIRECTION ( 'NONE',  ( -0.0000000000000000000, -0.0000000000000000000, 1.000000000000000000 ) ) ;
#203 = CARTESIAN_POINT ( 'NONE',  ( 0.0000000000000000000, 0.0000000000000000000, -0.02891466103421315400 ) ) ;
#204 = CARTESIAN_POINT ( 'NONE',  ( 12.70000000000000100, 0.0000000000000000000, -2.008538742559577100 ) ) ;
#205 = CARTESIAN_POINT ( 'NONE',  ( 0.0000000000000000000, 2.485950898259426100E-015, 2.008538742559580600 ) ) ;
#206 = CARTESIAN_POINT ( 'NONE',  ( 0.0000000000000000000, 12.70000000000000100, -0.02891466103421228700 ) ) ;
#207 = CARTESIAN_POINT ( 'NONE',  ( 0.0000000000000000000, 0.0000000000000000000, -38.59146125744042200 ) ) ;
#208 = MECHANICAL_DESIGN_GEOMETRIC_PRESENTATION_REPRESENTATION (  '', ( #210 ), #176 ) ;
#209 = PRESENTATION_LAYER_ASSIGNMENT (  '', '', ( #210 ) ) ;
#210 = STYLED_ITEM ( 'NONE', ( #185 ), #66 ) ;
#211 = CIRCLE ( 'NONE', #184, 12.70000000000000100 ) ;
#212 = FACE_OUTER_BOUND ( 'NONE', #39, .T. ) ;
#213 =( NAMED_UNIT ( * ) SI_UNIT ( $, .STERADIAN. ) SOLID_ANGLE_UNIT ( ) );
#214 = CARTESIAN_POINT ( 'NONE',  ( 0.0000000000000000000, 0.0000000000000000000, -108.1514612574404300 ) ) ;
#215 = AXIS2_PLACEMENT_3D ( 'NONE', #214, #193, #192 ) ;
#216 = CIRCLE ( 'NONE', #215, 106.9000000000000200 ) ;
#217 = DIRECTION ( 'NONE',  ( -1.224606353822377300E-016, -1.000000000000000000, 0.0000000000000000000 ) ) ;
#218 = DIRECTION ( 'NONE',  ( -1.000000000000000000, 1.224606353822377300E-016, 0.0000000000000000000 ) ) ;
#219 = AXIS2_PLACEMENT_3D ( 'NONE', #172, #198, #188 ) ;
#220 = CARTESIAN_POINT ( 'NONE',  ( -12.70000000000000100, 1.555250069354419300E-015, -0.02891466103421315400 ) ) ;
#221 = DIRECTION ( 'NONE',  ( -0.0000000000000000000, -0.0000000000000000000, 1.000000000000000000 ) ) ;
#222 = CARTESIAN_POINT ( 'NONE',  ( 0.0000000000000000000, 0.0000000000000000000, -2.008538742559577100 ) ) ;
#223 = AXIS2_PLACEMENT_3D ( 'NONE', #222, #221, #190 ) ;
#224 = CIRCLE ( 'NONE', #223, 12.70000000000000100 ) ;
#225 = DIRECTION ( 'NONE',  ( -1.000000000000000000, 1.224606353822377300E-016, 0.0000000000000000000 ) ) ;
#226 = CARTESIAN_POINT ( 'NONE',  ( 0.0000000000000000000, 0.0000000000000000000, -108.1514612574404300 ) ) ;
#227 = AXIS2_PLACEMENT_3D ( 'NONE', #174, #229, #160 ) ;
#228 = DIRECTION ( 'NONE',  ( 1.000000000000000000, 0.0000000000000000000, 0.0000000000000000000 ) ) ;
#229 = DIRECTION ( 'NONE',  ( -0.0000000000000000000, -0.0000000000000000000, 1.000000000000000000 ) ) ;
#230 = CARTESIAN_POINT ( 'NONE',  ( 12.70000000000000100, 0.0000000000000000000, -0.02891466103421315400 ) ) ;
#231 = CARTESIAN_POINT ( 'NONE',  ( -12.70000000000000100, 1.555250069354419300E-015, -2.008538742559577100 ) ) ;
#232 = AXIS2_PLACEMENT_3D ( 'NONE', #207, #218, #217 ) ;
#233 = CIRCLE ( 'NONE', #232, 40.60000000000000100 ) ;
#234 = FILL_AREA_STYLE_COLOUR ( '', #163 ) ;
#235 = DIRECTION ( 'NONE',  ( 1.000000000000000000, 0.0000000000000000000, 0.0000000000000000000 ) ) ;
#236 = CARTESIAN_POINT ( 'NONE',  ( 0.0000000000000000000, 0.0000000000000000000, -38.59146125744042200 ) ) ;
#237 = SPHERICAL_SURFACE ( 'NONE', #201, 40.60000000000000100 ) ;
#238 =( LENGTH_UNIT ( ) NAMED_UNIT ( * ) SI_UNIT ( .MILLI., .METRE. ) );
#239 = UNCERTAINTY_MEASURE_WITH_UNIT (LENGTH_MEASURE( 1.000000000000000100E-005 ), #238, 'distance_accuracy_value', 'NONE');
#240 = AXIS2_PLACEMENT_3D ( 'NONE', #290, #289, #288 ) ;
#241 = CIRCLE ( 'NONE', #240, 12.70000000000000100 ) ;
#242 = FILL_AREA_STYLE ('',( #243 ) ) ;
#243 = FILL_AREA_STYLE_COLOUR ( '', #268 ) ;
#244 = DIRECTION ( 'NONE',  ( -0.0000000000000000000, -0.0000000000000000000, 1.000000000000000000 ) ) ;
#245 = PRESENTATION_LAYER_ASSIGNMENT (  '', '', ( #246 ) ) ;
#246 = STYLED_ITEM ( 'NONE', ( #281 ), #82 ) ;
#247 = SURFACE_SIDE_STYLE ('',( #248 ) ) ;
#248 = SURFACE_STYLE_FILL_AREA ( #242 ) ;
#249 = UNCERTAINTY_MEASURE_WITH_UNIT (LENGTH_MEASURE( 1.000000000000000100E-005 ), #264, 'distance_accuracy_value', 'NONE');
#250 =( NAMED_UNIT ( * ) SI_UNIT ( $, .STERADIAN. ) SOLID_ANGLE_UNIT ( ) );
#251 =( NAMED_UNIT ( * ) PLANE_ANGLE_UNIT ( ) SI_UNIT ( $, .RADIAN. ) );
#252 =( GEOMETRIC_REPRESENTATION_CONTEXT ( 3 ) GLOBAL_UNCERTAINTY_ASSIGNED_CONTEXT ( ( #249 ) ) GLOBAL_UNIT_ASSIGNED_CONTEXT ( ( #264, #251, #250 ) ) REPRESENTATION_CONTEXT ( 'NONE', 'WORKASPACE' ) );
#253 = STYLED_ITEM ( 'NONE', ( #254 ), #83 ) ;
#254 = PRESENTATION_STYLE_ASSIGNMENT (( #255 ) ) ;
#255 = SURFACE_STYLE_USAGE ( .BOTH. , #256 ) ;
#256 = SURFACE_SIDE_STYLE ('',( #272 ) ) ;
#257 = DIRECTION ( 'NONE',  ( 0.0000000000000000000, 1.000000000000000000, 0.0000000000000000000 ) ) ;
#258 = DIRECTION ( 'NONE',  ( -1.000000000000000000, 0.0000000000000000000, 0.0000000000000000000 ) ) ;
#259 = CARTESIAN_POINT ( 'NONE',  ( 0.0000000000000000000, 0.0000000000000000000, -108.1514612574404300 ) ) ;
#260 = AXIS2_PLACEMENT_3D ( 'NONE', #259, #258, #257 ) ;
#261 =( NAMED_UNIT ( * ) PLANE_ANGLE_UNIT ( ) SI_UNIT ( $, .RADIAN. ) );
#262 = DIRECTION ( 'NONE',  ( 1.000000000000000000, 0.0000000000000000000, 0.0000000000000000000 ) ) ;
#263 = DIRECTION ( 'NONE',  ( -0.0000000000000000000, -0.0000000000000000000, 1.000000000000000000 ) ) ;
#264 =( LENGTH_UNIT ( ) NAMED_UNIT ( * ) SI_UNIT ( .MILLI., .METRE. ) );
#265 = UNCERTAINTY_MEASURE_WITH_UNIT (LENGTH_MEASURE( 1.000000000000000100E-005 ), #291, 'distance_accuracy_value', 'NONE');
#266 = MECHANICAL_DESIGN_GEOMETRIC_PRESENTATION_REPRESENTATION (  '', ( #253 ), #252 ) ;
#267 = PRESENTATION_LAYER_ASSIGNMENT (  '', '', ( #253 ) ) ;
#268 = COLOUR_RGB ( '',0.7960784313725489700, 0.8235294117647058400, 0.9372549019607843100 ) ;
#269 = VECTOR ( 'NONE', #244, 1000.000000000000000 ) ;
#270 =( NAMED_UNIT ( * ) SI_UNIT ( $, .STERADIAN. ) SOLID_ANGLE_UNIT ( ) );
#271 =( NAMED_UNIT ( * ) PLANE_ANGLE_UNIT ( ) SI_UNIT ( $, .RADIAN. ) );
#272 = SURFACE_STYLE_FILL_AREA ( #273 ) ;
#273 = FILL_AREA_STYLE ('',( #274 ) ) ;
#274 = FILL_AREA_STYLE_COLOUR ( '', #275 ) ;
#275 = COLOUR_RGB ( '',0.9568627450980391500, 0.9490196078431372100, 0.9607843137254902200 ) ;
#276 =( LENGTH_UNIT ( ) NAMED_UNIT ( * ) SI_UNIT ( .MILLI., .METRE. ) );
#277 =( NAMED_UNIT ( * ) SI_UNIT ( $, .STERADIAN. ) SOLID_ANGLE_UNIT ( ) );
#278 = FACE_OUTER_BOUND ( 'NONE', #49, .T. ) ;
#279 =( GEOMETRIC_REPRESENTATION_CONTEXT ( 3 ) GLOBAL_UNCERTAINTY_ASSIGNED_CONTEXT ( ( #283 ) ) GLOBAL_UNIT_ASSIGNED_CONTEXT ( ( #276, #261, #277 ) ) REPRESENTATION_CONTEXT ( 'NONE', 'WORKASPACE' ) );
#280 = SPHERICAL_SURFACE ( 'NONE', #260, 106.9000000000000100 ) ;
#281 = PRESENTATION_STYLE_ASSIGNMENT (( #282 ) ) ;
#282 = SURFACE_STYLE_USAGE ( .BOTH. , #247 ) ;
#283 = UNCERTAINTY_MEASURE_WITH_UNIT (LENGTH_MEASURE( 1.000000000000000100E-005 ), #276, 'distance_accuracy_value', 'NONE');
#284 = CARTESIAN_POINT ( 'NONE',  ( 0.0000000000000000000, 0.0000000000000000000, -0.02891466103421315400 ) ) ;
#285 = AXIS2_PLACEMENT_3D ( 'NONE', #284, #263, #262 ) ;
#286 = CIRCLE ( 'NONE', #285, 12.70000000000000100 ) ;
#287 = MECHANICAL_DESIGN_GEOMETRIC_PRESENTATION_REPRESENTATION (  '', ( #246 ), #279 ) ;
#288 = DIRECTION ( 'NONE',  ( 1.000000000000000000, 0.0000000000000000000, 0.0000000000000000000 ) ) ;
#289 = DIRECTION ( 'NONE',  ( -0.0000000000000000000, -0.0000000000000000000, 1.000000000000000000 ) ) ;
#290 = CARTESIAN_POINT ( 'NONE',  ( 0.0000000000000000000, 0.0000000000000000000, -2.008538742559577100 ) ) ;
#291 =( LENGTH_UNIT ( ) NAMED_UNIT ( * ) SI_UNIT ( .MILLI., .METRE. ) );
#292 = UNCERTAINTY_MEASURE_WITH_UNIT (LENGTH_MEASURE( 1.000000000000000100E-005 ), #298, 'distance_accuracy_value', 'NONE');
#293 =( NAMED_UNIT ( * ) SI_UNIT ( $, .STERADIAN. ) SOLID_ANGLE_UNIT ( ) );
#294 = SURFACE_SIDE_STYLE ('',( #304 ) ) ;
#295 = SURFACE_STYLE_USAGE ( .BOTH. , #294 ) ;
#296 = PRESENTATION_LAYER_ASSIGNMENT (  '', '', ( #312 ) ) ;
#297 = FILL_AREA_STYLE_COLOUR ( '', #302 ) ;
#298 =( LENGTH_UNIT ( ) NAMED_UNIT ( * ) SI_UNIT ( .MILLI., .METRE. ) );
#299 = PRODUCT_DEFINITION ( 'UNKNOWN', '', #309, #315 ) ;
#300 = DIRECTION ( 'NONE',  ( 1.000000000000000000, 0.0000000000000000000, 0.0000000000000000000 ) ) ;
#301 = MECHANICAL_DESIGN_GEOMETRIC_PRESENTATION_REPRESENTATION (  '', ( #312 ), #307 ) ;
#302 = COLOUR_RGB ( '',0.7960784313725489700, 0.8235294117647058400, 0.9372549019607843100 ) ;
#303 = CARTESIAN_POINT ( 'NONE',  ( 0.0000000000000000000, 0.0000000000000000000, 0.0000000000000000000 ) ) ;
#304 = SURFACE_STYLE_FILL_AREA ( #310 ) ;
#305 = AXIS2_PLACEMENT_3D ( 'NONE', #303, #313, #300 ) ;
#306 = PRESENTATION_STYLE_ASSIGNMENT (( #295 ) ) ;
#307 =( GEOMETRIC_REPRESENTATION_CONTEXT ( 3 ) GLOBAL_UNCERTAINTY_ASSIGNED_CONTEXT ( ( #292 ) ) GLOBAL_UNIT_ASSIGNED_CONTEXT ( ( #298, #311, #293 ) ) REPRESENTATION_CONTEXT ( 'NONE', 'WORKASPACE' ) );
#308 = PRODUCT_RELATED_PRODUCT_CATEGORY ( 'part', '', ( #318 ) ) ;
#309 = PRODUCT_DEFINITION_FORMATION_WITH_SPECIFIED_SOURCE ( 'ANY', '', #318, .NOT_KNOWN. ) ;
#310 = FILL_AREA_STYLE ('',( #297 ) ) ;
#311 =( NAMED_UNIT ( * ) PLANE_ANGLE_UNIT ( ) SI_UNIT ( $, .RADIAN. ) );
#312 = STYLED_ITEM ( 'NONE', ( #306 ), #84 ) ;
#313 = DIRECTION ( 'NONE',  ( 0.0000000000000000000, 0.0000000000000000000, 1.000000000000000000 ) ) ;
#314 = APPLICATION_CONTEXT ( 'automotive_design' ) ;
#315 = PRODUCT_DEFINITION_CONTEXT ( 'detailed design', #317, 'design' ) ;
#316 = APPLICATION_PROTOCOL_DEFINITION ( 'draft international standard', 'automotive_design', 1998, #317 ) ;
#317 = APPLICATION_CONTEXT ( 'automotive_design' ) ;
#318 = PRODUCT ( '4851-E0W', '4851-E0W', '', ( #319 ) ) ;
#319 = PRODUCT_CONTEXT ( 'NONE', #314, 'mechanical' ) ;
#320 = APPLICATION_PROTOCOL_DEFINITION ( 'draft international standard', 'automotive_design', 1998, #314 ) ;
#321 = PRODUCT_DEFINITION_SHAPE ( 'NONE', 'NONE',  #299 ) ;
#322 = SHAPE_DEFINITION_REPRESENTATION ( #321, #84 ) ;
ENDSEC;
END-ISO-10303-21;
