ISO-10303-21;
HEADER;
FILE_DESCRIPTION (( 'STEP AP203' ),
    '1' );
FILE_NAME ('Web Model 46162_46163.step',
    '2017-04-19T19:15:23',
    ( '' ),
    ( '' ),
    'SwSTEP 2.0',
    'SolidWorks 2016',
    '' );
FILE_SCHEMA (( 'CONFIG_CONTROL_DESIGN' ));
ENDSEC;

DATA;
#1 = MECHANICAL_CONTEXT ( 'NONE', #4, 'mechanical' ) ;
#2 = EDGE_CURVE ( 'NONE', #82, #66, #89, .T. ) ;
#3 = EDGE_CURVE ( 'NONE', #105, #66, #109, .T. ) ;
#4 = APPLICATION_CONTEXT ( 'configuration controlled 3d designs of mechanical parts and assemblies' ) ;
#5 = ORIENTED_EDGE ( 'NONE', *, *, #13, .F. ) ;
#6 = AXIS2_PLACEMENT_3D ( 'NONE', #118, #8, #101 ) ;
#7 = DIRECTION ( 'NONE',  ( 0.0000000000000000000, 0.0000000000000000000, 1.000000000000000000 ) ) ;
#8 = DIRECTION ( 'NONE',  ( -0.0000000000000000000, -0.0000000000000000000, -1.000000000000000000 ) ) ;
#9 = PERSON_AND_ORGANIZATION_ROLE ( 'classification_officer' ) ;
#10 = CARTESIAN_POINT ( 'NONE',  ( 3.000000000000000400, 3.673940397442060400E-016, 2.500000000000000000 ) ) ;
#11 = APPROVAL_ROLE ( '' ) ;
#12 = COORDINATED_UNIVERSAL_TIME_OFFSET ( 5, 0, .BEHIND. ) ;
#13 = EDGE_CURVE ( 'NONE', #77, #105, #127, .T. ) ;
#14 = AXIS2_PLACEMENT_3D ( 'NONE', #15, #114, #145 ) ;
#15 = CARTESIAN_POINT ( 'NONE',  ( 0.0000000000000000000, 0.0000000000000000000, 2.500000000000000000 ) ) ;
#16 =( NAMED_UNIT ( * ) PLANE_ANGLE_UNIT ( ) SI_UNIT ( $, .RADIAN. ) );
#17 = LOCAL_TIME ( 15, 15, 23.00000000000000000, #93 ) ;
#18 = PERSON_AND_ORGANIZATION_ROLE ( 'design_owner' ) ;
#19 = ORIENTED_EDGE ( 'NONE', *, *, #2, .T. ) ;
#20 = EDGE_CURVE ( 'NONE', #77, #82, #22, .T. ) ;
#21 = PERSON_AND_ORGANIZATION ( #23, #40 ) ;
#22 = LINE ( 'NONE', #10, #155 ) ;
#23 = PERSON ( 'UNSPECIFIED', 'UNSPECIFIED', 'UNSPECIFIED', ('UNSPECIFIED'), ('UNSPECIFIED'), ('UNSPECIFIED') ) ;
#24 = CALENDAR_DATE ( 2017, 19, 4 ) ;
#25 = CARTESIAN_POINT ( 'NONE',  ( 0.0000000000000000000, 0.0000000000000000000, 0.0000000000000000000 ) ) ;
#26 = CYLINDRICAL_SURFACE ( 'NONE', #6, 3.000000000000000400 ) ;
#27 = DIRECTION ( 'NONE',  ( 1.000000000000000000, 0.0000000000000000000, -0.0000000000000000000 ) ) ;
#28 = CARTESIAN_POINT ( 'NONE',  ( -3.000000000000000400, 0.0000000000000000000, 2.500000000000000000 ) ) ;
#29 = LOCAL_TIME ( 15, 15, 23.00000000000000000, #60 ) ;
#30 = AXIS2_PLACEMENT_3D ( 'NONE', #25, #7, #154 ) ;
#31 = UNCERTAINTY_MEASURE_WITH_UNIT (LENGTH_MEASURE( 1.000000000000000100E-005 ), #39, 'distance_accuracy_value', 'NONE');
#32 = ORIENTED_EDGE ( 'NONE', *, *, #35, .T. ) ;
#33 = CC_DESIGN_PERSON_AND_ORGANIZATION_ASSIGNMENT ( #50, #9, ( #71 ) ) ;
#34 = APPROVAL_DATE_TIME ( #99, #115 ) ;
#35 = EDGE_CURVE ( 'NONE', #105, #77, #137, .T. ) ;
#36 = AXIS2_PLACEMENT_3D ( 'NONE', #140, #150, #160 ) ;
#37 = DATE_AND_TIME ( #117, #159 ) ;
#38 = ORIENTED_EDGE ( 'NONE', *, *, #41, .F. ) ;
#39 =( LENGTH_UNIT ( ) NAMED_UNIT ( * ) SI_UNIT ( .MILLI., .METRE. ) );
#40 = ORGANIZATION ( 'UNSPECIFIED', 'UNSPECIFIED', '' ) ;
#41 = EDGE_CURVE ( 'NONE', #66, #82, #83, .T. ) ;
#42 = PERSON_AND_ORGANIZATION ( #23, #40 ) ;
#43 = ADVANCED_FACE ( 'NONE', ( #62 ), #48, .T. ) ;
#44 = ORIENTED_EDGE ( 'NONE', *, *, #3, .F. ) ;
#45 = DATE_AND_TIME ( #24, #17 ) ;
#46 = CC_DESIGN_PERSON_AND_ORGANIZATION_ASSIGNMENT ( #42, #18, ( #64 ) ) ;
#47 = PERSON_AND_ORGANIZATION_ROLE ( 'creator' ) ;
#48 = PLANE ( 'NONE',  #61 ) ;
#49 = PERSON_AND_ORGANIZATION_ROLE ( 'design_supplier' ) ;
#50 = PERSON_AND_ORGANIZATION ( #23, #40 ) ;
#51 = FACE_OUTER_BOUND ( 'NONE', #111, .T. ) ;
#52 = FACE_OUTER_BOUND ( 'NONE', #171, .T. ) ;
#53 = LOCAL_TIME ( 15, 15, 23.00000000000000000, #12 ) ;
#54 = ADVANCED_FACE ( 'NONE', ( #52 ), #65, .F. ) ;
#55 = ORIENTED_EDGE ( 'NONE', *, *, #2, .F. ) ;
#56 = PRODUCT_DEFINITION ( 'UNKNOWN', '', #102, #174 ) ;
#57 = LOCAL_TIME ( 15, 15, 23.00000000000000000, #84 ) ;
#58 = EDGE_LOOP ( 'NONE', ( #91, #125, #146, #142 ) ) ;
#59 = CARTESIAN_POINT ( 'NONE',  ( -3.000000000000000400, 0.0000000000000000000, 0.0000000000000000000 ) ) ;
#60 = COORDINATED_UNIVERSAL_TIME_OFFSET ( 5, 0, .BEHIND. ) ;
#61 = AXIS2_PLACEMENT_3D ( 'NONE', #143, #131, #104 ) ;
#62 = FACE_OUTER_BOUND ( 'NONE', #169, .T. ) ;
#63 = DIRECTION ( 'NONE',  ( 1.000000000000000000, 0.0000000000000000000, 0.0000000000000000000 ) ) ;
#64 = PRODUCT ( 'Web Model 46162_46163', 'Web Model 46162_46163', '', ( #1 ) ) ;
#65 = PLANE ( 'NONE',  #153 ) ;
#66 = VERTEX_POINT ( 'NONE', #59 ) ;
#67 = APPROVAL ( #168, 'UNSPECIFIED' ) ;
#68 = PERSON_AND_ORGANIZATION ( #23, #40 ) ;
#69 = CLOSED_SHELL ( 'NONE', ( #112, #161, #43, #54 ) ) ;
#70 = MANIFOLD_SOLID_BREP ( 'Boss-Extrude1', #69 ) ;
#71 = SECURITY_CLASSIFICATION ( '', '', #74 ) ;
#72 = APPROVAL_PERSON_ORGANIZATION ( #68, #113, #156 ) ;
#73 = CYLINDRICAL_SURFACE ( 'NONE', #14, 3.000000000000000400 ) ;
#74 = SECURITY_CLASSIFICATION_LEVEL ( 'unclassified' ) ;
#75 = CC_DESIGN_APPROVAL ( #67, ( #56 ) ) ;
#76 = APPLICATION_PROTOCOL_DEFINITION ( 'international standard', 'config_control_design', 1994, #148 ) ;
#77 = VERTEX_POINT ( 'NONE', #134 ) ;
#78 = DATE_TIME_ROLE ( 'creation_date' ) ;
#79 = CARTESIAN_POINT ( 'NONE',  ( 0.0000000000000000000, 0.0000000000000000000, 0.0000000000000000000 ) ) ;
#80 = DIRECTION ( 'NONE',  ( 1.000000000000000000, 0.0000000000000000000, 0.0000000000000000000 ) ) ;
#81 = PRODUCT_RELATED_PRODUCT_CATEGORY ( 'detail', '', ( #64 ) ) ;
#82 = VERTEX_POINT ( 'NONE', #152 ) ;
#83 = CIRCLE ( 'NONE', #30, 3.000000000000000400 ) ;
#84 = COORDINATED_UNIVERSAL_TIME_OFFSET ( 5, 0, .BEHIND. ) ;
#85 = CC_DESIGN_PERSON_AND_ORGANIZATION_ASSIGNMENT ( #135, #47, ( #56 ) ) ;
#86 = DATE_AND_TIME ( #132, #29 ) ;
#87 = ADVANCED_BREP_SHAPE_REPRESENTATION ( 'Web Model 46162_46163', ( #70, #36 ), #130 ) ;
#88 = ORIENTED_EDGE ( 'NONE', *, *, #20, .T. ) ;
#89 = CIRCLE ( 'NONE', #110, 3.000000000000000400 ) ;
#90 = PERSON_AND_ORGANIZATION ( #23, #40 ) ;
#91 = ORIENTED_EDGE ( 'NONE', *, *, #20, .F. ) ;
#92 = CC_DESIGN_SECURITY_CLASSIFICATION ( #71, ( #102 ) ) ;
#93 = COORDINATED_UNIVERSAL_TIME_OFFSET ( 5, 0, .BEHIND. ) ;
#94 = DIRECTION ( 'NONE',  ( 0.0000000000000000000, 0.0000000000000000000, 1.000000000000000000 ) ) ;
#95 = DIRECTION ( 'NONE',  ( 1.000000000000000000, 0.0000000000000000000, 0.0000000000000000000 ) ) ;
#96 = DATE_AND_TIME ( #119, #53 ) ;
#97 = CARTESIAN_POINT ( 'NONE',  ( -3.000000000000000400, 0.0000000000000000000, 2.500000000000000000 ) ) ;
#98 = CC_DESIGN_DATE_AND_TIME_ASSIGNMENT ( #37, #78, ( #56 ) ) ;
#99 = DATE_AND_TIME ( #164, #57 ) ;
#100 = ORIENTED_EDGE ( 'NONE', *, *, #13, .T. ) ;
#101 = DIRECTION ( 'NONE',  ( -1.000000000000000000, 0.0000000000000000000, 0.0000000000000000000 ) ) ;
#102 = PRODUCT_DEFINITION_FORMATION_WITH_SPECIFIED_SOURCE ( 'ANY', '', #64, .NOT_KNOWN. ) ;
#103 = COORDINATED_UNIVERSAL_TIME_OFFSET ( 5, 0, .BEHIND. ) ;
#104 = DIRECTION ( 'NONE',  ( 1.000000000000000000, 0.0000000000000000000, -0.0000000000000000000 ) ) ;
#105 = VERTEX_POINT ( 'NONE', #97 ) ;
#106 = CARTESIAN_POINT ( 'NONE',  ( 0.0000000000000000000, 0.0000000000000000000, 2.500000000000000000 ) ) ;
#107 = DIRECTION ( 'NONE',  ( 0.0000000000000000000, 0.0000000000000000000, 1.000000000000000000 ) ) ;
#108 = CC_DESIGN_APPROVAL ( #115, ( #71 ) ) ;
#109 = LINE ( 'NONE', #28, #128 ) ;
#110 = AXIS2_PLACEMENT_3D ( 'NONE', #173, #138, #80 ) ;
#111 = EDGE_LOOP ( 'NONE', ( #5, #88, #19, #44 ) ) ;
#112 = ADVANCED_FACE ( 'NONE', ( #51 ), #26, .T. ) ;
#113 = APPROVAL ( #133, 'UNSPECIFIED' ) ;
#114 = DIRECTION ( 'NONE',  ( -0.0000000000000000000, -0.0000000000000000000, -1.000000000000000000 ) ) ;
#115 = APPROVAL ( #149, 'UNSPECIFIED' ) ;
#116 = FACE_OUTER_BOUND ( 'NONE', #58, .T. ) ;
#117 = CALENDAR_DATE ( 2017, 19, 4 ) ;
#118 = CARTESIAN_POINT ( 'NONE',  ( 0.0000000000000000000, 0.0000000000000000000, 2.500000000000000000 ) ) ;
#119 = CALENDAR_DATE ( 2017, 19, 4 ) ;
#120 = DIRECTION ( 'NONE',  ( -0.0000000000000000000, -0.0000000000000000000, -1.000000000000000000 ) ) ;
#121 = DATE_TIME_ROLE ( 'classification_date' ) ;
#122 = CC_DESIGN_APPROVAL ( #113, ( #102 ) ) ;
#123 = SHAPE_DEFINITION_REPRESENTATION ( #165, #87 ) ;
#124 = APPROVAL_PERSON_ORGANIZATION ( #163, #67, #166 ) ;
#125 = ORIENTED_EDGE ( 'NONE', *, *, #35, .F. ) ;
#126 = PERSON_AND_ORGANIZATION ( #23, #40 ) ;
#127 = CIRCLE ( 'NONE', #162, 3.000000000000000400 ) ;
#128 = VECTOR ( 'NONE', #120, 1000.000000000000000 ) ;
#129 = DIRECTION ( 'NONE',  ( 0.0000000000000000000, 0.0000000000000000000, 1.000000000000000000 ) ) ;
#130 =( GEOMETRIC_REPRESENTATION_CONTEXT ( 3 ) GLOBAL_UNCERTAINTY_ASSIGNED_CONTEXT ( ( #31 ) ) GLOBAL_UNIT_ASSIGNED_CONTEXT ( ( #39, #16, #175 ) ) REPRESENTATION_CONTEXT ( 'NONE', 'WORKASPACE' ) );
#131 = DIRECTION ( 'NONE',  ( 0.0000000000000000000, 0.0000000000000000000, 1.000000000000000000 ) ) ;
#132 = CALENDAR_DATE ( 2017, 19, 4 ) ;
#133 = APPROVAL_STATUS ( 'not_yet_approved' ) ;
#134 = CARTESIAN_POINT ( 'NONE',  ( 3.000000000000000400, 3.673940397442060400E-016, 2.500000000000000000 ) ) ;
#135 = PERSON_AND_ORGANIZATION ( #23, #40 ) ;
#136 = CC_DESIGN_PERSON_AND_ORGANIZATION_ASSIGNMENT ( #90, #49, ( #102 ) ) ;
#137 = CIRCLE ( 'NONE', #147, 3.000000000000000400 ) ;
#138 = DIRECTION ( 'NONE',  ( 0.0000000000000000000, 0.0000000000000000000, 1.000000000000000000 ) ) ;
#139 = CC_DESIGN_PERSON_AND_ORGANIZATION_ASSIGNMENT ( #126, #172, ( #102 ) ) ;
#140 = CARTESIAN_POINT ( 'NONE',  ( 0.0000000000000000000, 0.0000000000000000000, 0.0000000000000000000 ) ) ;
#141 = APPLICATION_PROTOCOL_DEFINITION ( 'international standard', 'config_control_design', 1994, #4 ) ;
#142 = ORIENTED_EDGE ( 'NONE', *, *, #41, .T. ) ;
#143 = CARTESIAN_POINT ( 'NONE',  ( 0.0000000000000000000, 0.0000000000000000000, 2.500000000000000000 ) ) ;
#144 = CARTESIAN_POINT ( 'NONE',  ( 0.0000000000000000000, 0.0000000000000000000, 2.500000000000000000 ) ) ;
#145 = DIRECTION ( 'NONE',  ( -1.000000000000000000, 0.0000000000000000000, 0.0000000000000000000 ) ) ;
#146 = ORIENTED_EDGE ( 'NONE', *, *, #3, .T. ) ;
#147 = AXIS2_PLACEMENT_3D ( 'NONE', #106, #94, #63 ) ;
#148 = APPLICATION_CONTEXT ( 'configuration controlled 3d designs of mechanical parts and assemblies' ) ;
#149 = APPROVAL_STATUS ( 'not_yet_approved' ) ;
#150 = DIRECTION ( 'NONE',  ( 0.0000000000000000000, 0.0000000000000000000, 1.000000000000000000 ) ) ;
#151 = APPROVAL_PERSON_ORGANIZATION ( #21, #115, #11 ) ;
#152 = CARTESIAN_POINT ( 'NONE',  ( 3.000000000000000400, 3.673940397442060400E-016, 0.0000000000000000000 ) ) ;
#153 = AXIS2_PLACEMENT_3D ( 'NONE', #79, #129, #27 ) ;
#154 = DIRECTION ( 'NONE',  ( 1.000000000000000000, 0.0000000000000000000, 0.0000000000000000000 ) ) ;
#155 = VECTOR ( 'NONE', #157, 1000.000000000000000 ) ;
#156 = APPROVAL_ROLE ( '' ) ;
#157 = DIRECTION ( 'NONE',  ( -0.0000000000000000000, -0.0000000000000000000, -1.000000000000000000 ) ) ;
#158 = APPROVAL_DATE_TIME ( #45, #113 ) ;
#159 = LOCAL_TIME ( 15, 15, 23.00000000000000000, #103 ) ;
#160 = DIRECTION ( 'NONE',  ( 1.000000000000000000, 0.0000000000000000000, 0.0000000000000000000 ) ) ;
#161 = ADVANCED_FACE ( 'NONE', ( #116 ), #73, .T. ) ;
#162 = AXIS2_PLACEMENT_3D ( 'NONE', #144, #107, #95 ) ;
#163 = PERSON_AND_ORGANIZATION ( #23, #40 ) ;
#164 = CALENDAR_DATE ( 2017, 19, 4 ) ;
#165 = PRODUCT_DEFINITION_SHAPE ( 'NONE', 'NONE',  #56 ) ;
#166 = APPROVAL_ROLE ( '' ) ;
#167 = APPROVAL_DATE_TIME ( #86, #67 ) ;
#168 = APPROVAL_STATUS ( 'not_yet_approved' ) ;
#169 = EDGE_LOOP ( 'NONE', ( #32, #100 ) ) ;
#170 = CC_DESIGN_DATE_AND_TIME_ASSIGNMENT ( #96, #121, ( #71 ) ) ;
#171 = EDGE_LOOP ( 'NONE', ( #38, #55 ) ) ;
#172 = PERSON_AND_ORGANIZATION_ROLE ( 'creator' ) ;
#173 = CARTESIAN_POINT ( 'NONE',  ( 0.0000000000000000000, 0.0000000000000000000, 0.0000000000000000000 ) ) ;
#174 = DESIGN_CONTEXT ( 'detailed design', #148, 'design' ) ;
#175 =( NAMED_UNIT ( * ) SI_UNIT ( $, .STERADIAN. ) SOLID_ANGLE_UNIT ( ) );
ENDSEC;
END-ISO-10303-21;
