ISO-10303-21;
HEADER;
FILE_DESCRIPTION (( 'STEP AP203' ),
    '1' );
FILE_NAME ('Web Model 11858_11858.step',
    '2019-01-10T19:39:09',
    ( '' ),
    ( '' ),
    'SwSTEP 2.0',
    'SolidWorks 2016',
    '' );
FILE_SCHEMA (( 'CONFIG_CONTROL_DESIGN' ));
ENDSEC;

DATA;
#1 = CARTESIAN_POINT ( 'NONE',  ( -4.750000000000000000, 9.184850993605150300E-015, 75.00000000000001400 ) ) ;
#2 = ORIENTED_EDGE ( 'NONE', *, *, #201, .F. ) ;
#3 = EDGE_CURVE ( 'NONE', #198, #130, #147, .T. ) ;
#4 = LOCAL_TIME ( 14, 39, 9.000000000000000000, #175 ) ;
#5 = VERTEX_POINT ( 'NONE', #221 ) ;
#6 = CC_DESIGN_PERSON_AND_ORGANIZATION_ASSIGNMENT ( #65, #187, ( #223 ) ) ;
#7 = VECTOR ( 'NONE', #55, 1000.000000000000000 ) ;
#8 = DATE_AND_TIME ( #233, #133 ) ;
#9 = PERSON_AND_ORGANIZATION ( #27, #108 ) ;
#10 = ADVANCED_FACE ( 'NONE', ( #85 ), #39, .F. ) ;
#11 = ORIENTED_EDGE ( 'NONE', *, *, #127, .T. ) ;
#12 = CC_DESIGN_DATE_AND_TIME_ASSIGNMENT ( #50, #48, ( #59 ) ) ;
#13 = CARTESIAN_POINT ( 'NONE',  ( 5.000000000000000000, 0.0000000000000000000, 0.0000000000000000000 ) ) ;
#14 = DIRECTION ( 'NONE',  ( 0.0000000000000000000, 0.0000000000000000000, -1.000000000000000000 ) ) ;
#15 = CARTESIAN_POINT ( 'NONE',  ( -4.750000000000000000, 0.0000000000000000000, 75.00000000000001400 ) ) ;
#16 = AXIS2_PLACEMENT_3D ( 'NONE', #73, #34, #225 ) ;
#17 = DIRECTION ( 'NONE',  ( 0.0000000000000000000, 0.0000000000000000000, -1.000000000000000000 ) ) ;
#18 = CIRCLE ( 'NONE', #28, 74.75000000000009900 ) ;
#19 = CC_DESIGN_APPROVAL ( #68, ( #67 ) ) ;
#20 = DIRECTION ( 'NONE',  ( 0.7071067811865671100, 8.659560562354692500E-017, 0.7071067811865279200 ) ) ;
#21 = CARTESIAN_POINT ( 'NONE',  ( 4.750000000000096800, 0.0000000000000000000, 0.0000000000000000000 ) ) ;
#22 = ORIENTED_EDGE ( 'NONE', *, *, #123, .T. ) ;
#23 = AXIS2_PLACEMENT_3D ( 'NONE', #36, #220, #91 ) ;
#24 = CIRCLE ( 'NONE', #163, 74.75000000000002800 ) ;
#25 = CALENDAR_DATE ( 2019, 10, 1 ) ;
#26 = EDGE_CURVE ( 'NONE', #228, #206, #24, .T. ) ;
#27 = PERSON ( 'UNSPECIFIED', 'UNSPECIFIED', 'UNSPECIFIED', ('UNSPECIFIED'), ('UNSPECIFIED'), ('UNSPECIFIED') ) ;
#28 = AXIS2_PLACEMENT_3D ( 'NONE', #71, #96, #266 ) ;
#29 = VECTOR ( 'NONE', #231, 1000.000000000000000 ) ;
#30 = PERSON_AND_ORGANIZATION ( #27, #108 ) ;
#31 = CC_DESIGN_PERSON_AND_ORGANIZATION_ASSIGNMENT ( #9, #64, ( #95 ) ) ;
#32 = ADVANCED_FACE ( 'NONE', ( #177 ), #97, .T. ) ;
#33 = LINE ( 'NONE', #114, #7 ) ;
#34 = DIRECTION ( 'NONE',  ( -1.000000000000000000, 0.0000000000000000000, 0.0000000000000000000 ) ) ;
#35 = EDGE_CURVE ( 'NONE', #154, #259, #157, .T. ) ;
#36 = CARTESIAN_POINT ( 'NONE',  ( -4.750000000000000000, 0.0000000000000000000, 0.0000000000000000000 ) ) ;
#37 = CARTESIAN_POINT ( 'NONE',  ( 5.000000000000000000, 9.154234823626477600E-015, -74.75000000000009900 ) ) ;
#38 = LINE ( 'NONE', #46, #132 ) ;
#39 = PLANE ( 'NONE',  #156 ) ;
#40 = DIRECTION ( 'NONE',  ( 0.0000000000000000000, 0.0000000000000000000, 1.000000000000000000 ) ) ;
#41 = APPLICATION_PROTOCOL_DEFINITION ( 'international standard', 'config_control_design', 1994, #168 ) ;
#42 = DIRECTION ( 'NONE',  ( 0.0000000000000000000, 0.0000000000000000000, 1.000000000000000000 ) ) ;
#43 = CIRCLE ( 'NONE', #145, 75.00000000000001400 ) ;
#44 = AXIS2_PLACEMENT_3D ( 'NONE', #241, #140, #17 ) ;
#45 = ORIENTED_EDGE ( 'NONE', *, *, #87, .F. ) ;
#46 = CARTESIAN_POINT ( 'NONE',  ( 5.000000000000000000, 0.0000000000000000000, 75.00000000000001400 ) ) ;
#47 = DIRECTION ( 'NONE',  ( -1.000000000000000000, 0.0000000000000000000, 0.0000000000000000000 ) ) ;
#48 = DATE_TIME_ROLE ( 'classification_date' ) ;
#49 = CONICAL_SURFACE ( 'NONE', #44, 75.00000000000001400, 0.7853981633974206300 ) ;
#50 = DATE_AND_TIME ( #80, #188 ) ;
#51 = PRODUCT_RELATED_PRODUCT_CATEGORY ( 'detail', '', ( #223 ) ) ;
#52 = ADVANCED_FACE ( 'NONE', ( #247 ), #58, .T. ) ;
#53 = PERSON_AND_ORGANIZATION ( #27, #108 ) ;
#54 = ORIENTED_EDGE ( 'NONE', *, *, #84, .F. ) ;
#55 = DIRECTION ( 'NONE',  ( 0.7071067811865671100, 0.0000000000000000000, -0.7071067811865279200 ) ) ;
#56 = ADVANCED_FACE ( 'NONE', ( #89 ), #112, .T. ) ;
#57 = DIRECTION ( 'NONE',  ( -1.000000000000000000, -0.0000000000000000000, -0.0000000000000000000 ) ) ;
#58 = PLANE ( 'NONE',  #245 ) ;
#59 = SECURITY_CLASSIFICATION ( '', '', #211 ) ;
#60 = VECTOR ( 'NONE', #148, 1000.000000000000000 ) ;
#61 = CARTESIAN_POINT ( 'NONE',  ( 4.750000000000096800, 9.184850993605150300E-015, -75.00000000000001400 ) ) ;
#62 = AXIS2_PLACEMENT_3D ( 'NONE', #98, #226, #78 ) ;
#63 = EDGE_LOOP ( 'NONE', ( #260, #45, #86, #155 ) ) ;
#64 = PERSON_AND_ORGANIZATION_ROLE ( 'design_supplier' ) ;
#65 = PERSON_AND_ORGANIZATION ( #27, #108 ) ;
#66 = ORIENTED_EDGE ( 'NONE', *, *, #235, .T. ) ;
#67 = PRODUCT_DEFINITION ( 'UNKNOWN', '', #95, #128 ) ;
#68 = APPROVAL ( #171, 'UNSPECIFIED' ) ;
#69 = CIRCLE ( 'NONE', #131, 74.75000000000002800 ) ;
#70 = PERSON_AND_ORGANIZATION ( #27, #108 ) ;
#71 = CARTESIAN_POINT ( 'NONE',  ( 5.000000000000000000, 0.0000000000000000000, 0.0000000000000000000 ) ) ;
#72 = EDGE_LOOP ( 'NONE', ( #92, #66, #183, #54 ) ) ;
#73 = CARTESIAN_POINT ( 'NONE',  ( 5.000000000000000000, 0.0000000000000000000, 0.0000000000000000000 ) ) ;
#74 = DIRECTION ( 'NONE',  ( 0.0000000000000000000, 0.0000000000000000000, -1.000000000000000000 ) ) ;
#75 = CONICAL_SURFACE ( 'NONE', #222, 74.75000000000009900, 0.7853981633974761500 ) ;
#76 = CALENDAR_DATE ( 2019, 10, 1 ) ;
#77 = CARTESIAN_POINT ( 'NONE',  ( 5.000000000000000000, 0.0000000000000000000, 0.0000000000000000000 ) ) ;
#78 = DIRECTION ( 'NONE',  ( 0.0000000000000000000, 0.0000000000000000000, -1.000000000000000000 ) ) ;
#79 = CC_DESIGN_DATE_AND_TIME_ASSIGNMENT ( #8, #254, ( #67 ) ) ;
#80 = CALENDAR_DATE ( 2019, 10, 1 ) ;
#81 = APPROVAL_ROLE ( '' ) ;
#82 = APPROVAL_ROLE ( '' ) ;
#83 = CONICAL_SURFACE ( 'NONE', #62, 75.00000000000001400, 0.7853981633974206300 ) ;
#84 = EDGE_CURVE ( 'NONE', #228, #198, #33, .T. ) ;
#85 = FACE_OUTER_BOUND ( 'NONE', #139, .T. ) ;
#86 = ORIENTED_EDGE ( 'NONE', *, *, #151, .T. ) ;
#87 = EDGE_CURVE ( 'NONE', #5, #154, #18, .T. ) ;
#88 = MANIFOLD_SOLID_BREP ( 'Chamfer1', #264 ) ;
#89 = FACE_OUTER_BOUND ( 'NONE', #167, .T. ) ;
#90 = ORIENTED_EDGE ( 'NONE', *, *, #235, .F. ) ;
#91 = DIRECTION ( 'NONE',  ( 0.0000000000000000000, 0.0000000000000000000, -1.000000000000000000 ) ) ;
#92 = ORIENTED_EDGE ( 'NONE', *, *, #160, .F. ) ;
#93 = DATE_AND_TIME ( #193, #258 ) ;
#94 = ORIENTED_EDGE ( 'NONE', *, *, #35, .T. ) ;
#95 = PRODUCT_DEFINITION_FORMATION_WITH_SPECIFIED_SOURCE ( 'ANY', '', #223, .NOT_KNOWN. ) ;
#96 = DIRECTION ( 'NONE',  ( 1.000000000000000000, 0.0000000000000000000, 0.0000000000000000000 ) ) ;
#97 = CYLINDRICAL_SURFACE ( 'NONE', #170, 75.00000000000001400 ) ;
#98 = CARTESIAN_POINT ( 'NONE',  ( -4.750000000000000000, 0.0000000000000000000, 0.0000000000000000000 ) ) ;
#99 = AXIS2_PLACEMENT_3D ( 'NONE', #21, #47, #189 ) ;
#100 = DIRECTION ( 'NONE',  ( -1.000000000000000000, 0.0000000000000000000, 0.0000000000000000000 ) ) ;
#101 = ORIENTED_EDGE ( 'NONE', *, *, #87, .T. ) ;
#102 = CARTESIAN_POINT ( 'NONE',  ( 5.000000000000000000, 0.0000000000000000000, 0.0000000000000000000 ) ) ;
#103 =( NAMED_UNIT ( * ) PLANE_ANGLE_UNIT ( ) SI_UNIT ( $, .RADIAN. ) );
#104 = PERSON_AND_ORGANIZATION_ROLE ( 'classification_officer' ) ;
#105 = AXIS2_PLACEMENT_3D ( 'NONE', #250, #42, #270 ) ;
#106 = APPLICATION_CONTEXT ( 'configuration controlled 3d designs of mechanical parts and assemblies' ) ;
#107 = CYLINDRICAL_SURFACE ( 'NONE', #191, 75.00000000000001400 ) ;
#108 = ORGANIZATION ( 'UNSPECIFIED', 'UNSPECIFIED', '' ) ;
#109 = ORIENTED_EDGE ( 'NONE', *, *, #201, .T. ) ;
#110 = LINE ( 'NONE', #120, #29 ) ;
#111 = APPROVAL ( #212, 'UNSPECIFIED' ) ;
#112 = CONICAL_SURFACE ( 'NONE', #16, 74.75000000000009900, 0.7853981633974761500 ) ;
#113 = CARTESIAN_POINT ( 'NONE',  ( -5.000000000000000000, 0.0000000000000000000, 0.0000000000000000000 ) ) ;
#114 = CARTESIAN_POINT ( 'NONE',  ( -4.750000000000000000, 0.0000000000000000000, -75.00000000000001400 ) ) ;
#115 = LOCAL_TIME ( 14, 39, 9.000000000000000000, #272 ) ;
#116 = CC_DESIGN_PERSON_AND_ORGANIZATION_ASSIGNMENT ( #70, #125, ( #95 ) ) ;
#117 = CARTESIAN_POINT ( 'NONE',  ( -5.000000000000000000, 0.0000000000000000000, 0.0000000000000000000 ) ) ;
#118 = DIRECTION ( 'NONE',  ( -1.000000000000000000, -0.0000000000000000000, -0.0000000000000000000 ) ) ;
#119 = FACE_OUTER_BOUND ( 'NONE', #213, .T. ) ;
#120 = CARTESIAN_POINT ( 'NONE',  ( 5.000000000000000000, 0.0000000000000000000, 74.75000000000009900 ) ) ;
#121 = PRODUCT_DEFINITION_SHAPE ( 'NONE', 'NONE',  #67 ) ;
#122 = CARTESIAN_POINT ( 'NONE',  ( -4.750000000000000000, 9.184850993605150300E-015, -75.00000000000001400 ) ) ;
#123 = EDGE_CURVE ( 'NONE', #130, #198, #224, .T. ) ;
#124 = DATE_AND_TIME ( #76, #4 ) ;
#125 = PERSON_AND_ORGANIZATION_ROLE ( 'creator' ) ;
#126 = ORIENTED_EDGE ( 'NONE', *, *, #127, .F. ) ;
#127 = EDGE_CURVE ( 'NONE', #214, #259, #217, .T. ) ;
#128 = DESIGN_CONTEXT ( 'detailed design', #106, 'design' ) ;
#129 = APPROVAL_PERSON_ORGANIZATION ( #53, #68, #81 ) ;
#130 = VERTEX_POINT ( 'NONE', #15 ) ;
#131 = AXIS2_PLACEMENT_3D ( 'NONE', #143, #205, #74 ) ;
#132 = VECTOR ( 'NONE', #150, 1000.000000000000000 ) ;
#133 = LOCAL_TIME ( 14, 39, 9.000000000000000000, #194 ) ;
#134 = CC_DESIGN_APPROVAL ( #111, ( #59 ) ) ;
#135 = DIRECTION ( 'NONE',  ( 1.000000000000000000, -0.0000000000000000000, -0.0000000000000000000 ) ) ;
#136 = AXIS2_PLACEMENT_3D ( 'NONE', #263, #135, #137 ) ;
#137 = DIRECTION ( 'NONE',  ( 0.0000000000000000000, 0.0000000000000000000, -1.000000000000000000 ) ) ;
#138 = ADVANCED_FACE ( 'NONE', ( #255 ), #49, .T. ) ;
#139 = EDGE_LOOP ( 'NONE', ( #164, #268 ) ) ;
#140 = DIRECTION ( 'NONE',  ( 1.000000000000000000, -0.0000000000000000000, -0.0000000000000000000 ) ) ;
#141 = LINE ( 'NONE', #1, #166 ) ;
#142 = APPROVAL_DATE_TIME ( #93, #111 ) ;
#143 = CARTESIAN_POINT ( 'NONE',  ( -5.000000000000000000, 0.0000000000000000000, 0.0000000000000000000 ) ) ;
#144 =( NAMED_UNIT ( * ) SI_UNIT ( $, .STERADIAN. ) SOLID_ANGLE_UNIT ( ) );
#145 = AXIS2_PLACEMENT_3D ( 'NONE', #249, #100, #252 ) ;
#146 = DIRECTION ( 'NONE',  ( 0.0000000000000000000, 0.0000000000000000000, 1.000000000000000000 ) ) ;
#147 = CIRCLE ( 'NONE', #136, 75.00000000000001400 ) ;
#148 = DIRECTION ( 'NONE',  ( -1.000000000000000000, -0.0000000000000000000, -0.0000000000000000000 ) ) ;
#149 = SHAPE_DEFINITION_REPRESENTATION ( #121, #218 ) ;
#150 = DIRECTION ( 'NONE',  ( -1.000000000000000000, -0.0000000000000000000, -0.0000000000000000000 ) ) ;
#151 = EDGE_CURVE ( 'NONE', #5, #214, #110, .T. ) ;
#152 = ORIENTED_EDGE ( 'NONE', *, *, #123, .F. ) ;
#153 = ORIENTED_EDGE ( 'NONE', *, *, #26, .F. ) ;
#154 = VERTEX_POINT ( 'NONE', #204 ) ;
#155 = ORIENTED_EDGE ( 'NONE', *, *, #216, .F. ) ;
#156 = AXIS2_PLACEMENT_3D ( 'NONE', #117, #200, #14 ) ;
#157 = LINE ( 'NONE', #37, #239 ) ;
#158 = UNCERTAINTY_MEASURE_WITH_UNIT (LENGTH_MEASURE( 1.000000000000000100E-005 ), #230, 'distance_accuracy_value', 'NONE');
#159 = ADVANCED_FACE ( 'NONE', ( #196 ), #75, .T. ) ;
#160 = EDGE_CURVE ( 'NONE', #206, #228, #69, .T. ) ;
#161 = DATE_AND_TIME ( #25, #115 ) ;
#162 = DIRECTION ( 'NONE',  ( 0.0000000000000000000, 0.0000000000000000000, -1.000000000000000000 ) ) ;
#163 = AXIS2_PLACEMENT_3D ( 'NONE', #113, #244, #162 ) ;
#164 = ORIENTED_EDGE ( 'NONE', *, *, #26, .T. ) ;
#165 = CARTESIAN_POINT ( 'NONE',  ( -5.000000000000000000, 9.169542908615810000E-015, 74.75000000000002800 ) ) ;
#166 = VECTOR ( 'NONE', #20, 1000.000000000000000 ) ;
#167 = EDGE_LOOP ( 'NONE', ( #273, #94, #126, #192 ) ) ;
#168 = APPLICATION_CONTEXT ( 'configuration controlled 3d designs of mechanical parts and assemblies' ) ;
#169 = CARTESIAN_POINT ( 'NONE',  ( 4.750000000000096800, 0.0000000000000000000, 75.00000000000001400 ) ) ;
#170 = AXIS2_PLACEMENT_3D ( 'NONE', #181, #57, #182 ) ;
#171 = APPROVAL_STATUS ( 'not_yet_approved' ) ;
#172 = ORIENTED_EDGE ( 'NONE', *, *, #216, .T. ) ;
#173 = EDGE_LOOP ( 'NONE', ( #90, #153, #219, #152 ) ) ;
#174 = APPROVAL_PERSON_ORGANIZATION ( #229, #111, #253 ) ;
#175 = COORDINATED_UNIVERSAL_TIME_OFFSET ( 5, 0, .BEHIND. ) ;
#176 = CC_DESIGN_PERSON_AND_ORGANIZATION_ASSIGNMENT ( #243, #104, ( #59 ) ) ;
#177 = FACE_OUTER_BOUND ( 'NONE', #227, .T. ) ;
#178 = APPROVAL_PERSON_ORGANIZATION ( #30, #256, #82 ) ;
#179 = CC_DESIGN_SECURITY_CLASSIFICATION ( #59, ( #95 ) ) ;
#180 =( GEOMETRIC_REPRESENTATION_CONTEXT ( 3 ) GLOBAL_UNCERTAINTY_ASSIGNED_CONTEXT ( ( #158 ) ) GLOBAL_UNIT_ASSIGNED_CONTEXT ( ( #230, #103, #144 ) ) REPRESENTATION_CONTEXT ( 'NONE', 'WORKASPACE' ) );
#181 = CARTESIAN_POINT ( 'NONE',  ( 5.000000000000000000, 0.0000000000000000000, 0.0000000000000000000 ) ) ;
#182 = DIRECTION ( 'NONE',  ( 0.0000000000000000000, 0.0000000000000000000, 1.000000000000000000 ) ) ;
#183 = ORIENTED_EDGE ( 'NONE', *, *, #3, .F. ) ;
#184 = DIRECTION ( 'NONE',  ( -1.000000000000000000, 0.0000000000000000000, 0.0000000000000000000 ) ) ;
#185 = EDGE_CURVE ( 'NONE', #154, #5, #215, .T. ) ;
#186 = DIRECTION ( 'NONE',  ( 0.0000000000000000000, 0.0000000000000000000, -1.000000000000000000 ) ) ;
#187 = PERSON_AND_ORGANIZATION_ROLE ( 'design_owner' ) ;
#188 = LOCAL_TIME ( 14, 39, 9.000000000000000000, #262 ) ;
#189 = DIRECTION ( 'NONE',  ( 0.0000000000000000000, 0.0000000000000000000, -1.000000000000000000 ) ) ;
#190 = APPROVAL_STATUS ( 'not_yet_approved' ) ;
#191 = AXIS2_PLACEMENT_3D ( 'NONE', #248, #118, #40 ) ;
#192 = ORIENTED_EDGE ( 'NONE', *, *, #151, .F. ) ;
#193 = CALENDAR_DATE ( 2019, 10, 1 ) ;
#194 = COORDINATED_UNIVERSAL_TIME_OFFSET ( 5, 0, .BEHIND. ) ;
#195 = CC_DESIGN_APPROVAL ( #256, ( #95 ) ) ;
#196 = FACE_OUTER_BOUND ( 'NONE', #63, .T. ) ;
#197 = ADVANCED_FACE ( 'NONE', ( #202 ), #83, .T. ) ;
#198 = VERTEX_POINT ( 'NONE', #122 ) ;
#199 = COORDINATED_UNIVERSAL_TIME_OFFSET ( 5, 0, .BEHIND. ) ;
#200 = DIRECTION ( 'NONE',  ( 1.000000000000000000, 0.0000000000000000000, 0.0000000000000000000 ) ) ;
#201 = EDGE_CURVE ( 'NONE', #259, #198, #257, .T. ) ;
#202 = FACE_OUTER_BOUND ( 'NONE', #173, .T. ) ;
#203 = ORIENTED_EDGE ( 'NONE', *, *, #238, .T. ) ;
#204 = CARTESIAN_POINT ( 'NONE',  ( 5.000000000000000000, 9.169542908615813200E-015, -74.75000000000009900 ) ) ;
#205 = DIRECTION ( 'NONE',  ( -1.000000000000000000, -0.0000000000000000000, -0.0000000000000000000 ) ) ;
#206 = VERTEX_POINT ( 'NONE', #165 ) ;
#207 = MECHANICAL_CONTEXT ( 'NONE', #168, 'mechanical' ) ;
#208 = PERSON_AND_ORGANIZATION ( #27, #108 ) ;
#209 = ORIENTED_EDGE ( 'NONE', *, *, #185, .T. ) ;
#210 = CARTESIAN_POINT ( 'NONE',  ( -5.000000000000000000, 0.0000000000000000000, -74.75000000000002800 ) ) ;
#211 = SECURITY_CLASSIFICATION_LEVEL ( 'unclassified' ) ;
#212 = APPROVAL_STATUS ( 'not_yet_approved' ) ;
#213 = EDGE_LOOP ( 'NONE', ( #11, #109, #261, #267 ) ) ;
#214 = VERTEX_POINT ( 'NONE', #169 ) ;
#215 = CIRCLE ( 'NONE', #265, 74.75000000000009900 ) ;
#216 = EDGE_CURVE ( 'NONE', #259, #214, #43, .T. ) ;
#217 = CIRCLE ( 'NONE', #99, 75.00000000000001400 ) ;
#218 = ADVANCED_BREP_SHAPE_REPRESENTATION ( 'Web Model 11858_11858', ( #88, #105 ), #180 ) ;
#219 = ORIENTED_EDGE ( 'NONE', *, *, #84, .T. ) ;
#220 = DIRECTION ( 'NONE',  ( 1.000000000000000000, -0.0000000000000000000, -0.0000000000000000000 ) ) ;
#221 = CARTESIAN_POINT ( 'NONE',  ( 5.000000000000000000, 0.0000000000000000000, 74.75000000000009900 ) ) ;
#222 = AXIS2_PLACEMENT_3D ( 'NONE', #102, #184, #146 ) ;
#223 = PRODUCT ( 'Web Model 11858_11858', 'Web Model 11858_11858', '', ( #207 ) ) ;
#224 = CIRCLE ( 'NONE', #23, 75.00000000000001400 ) ;
#225 = DIRECTION ( 'NONE',  ( 0.0000000000000000000, 0.0000000000000000000, 1.000000000000000000 ) ) ;
#226 = DIRECTION ( 'NONE',  ( 1.000000000000000000, -0.0000000000000000000, -0.0000000000000000000 ) ) ;
#227 = EDGE_LOOP ( 'NONE', ( #2, #172, #203, #22 ) ) ;
#228 = VERTEX_POINT ( 'NONE', #210 ) ;
#229 = PERSON_AND_ORGANIZATION ( #27, #108 ) ;
#230 =( LENGTH_UNIT ( ) NAMED_UNIT ( * ) SI_UNIT ( .MILLI., .METRE. ) );
#231 = DIRECTION ( 'NONE',  ( -0.7071067811865279200, 0.0000000000000000000, 0.7071067811865672200 ) ) ;
#232 = PERSON_AND_ORGANIZATION_ROLE ( 'creator' ) ;
#233 = CALENDAR_DATE ( 2019, 10, 1 ) ;
#234 = APPLICATION_PROTOCOL_DEFINITION ( 'international standard', 'config_control_design', 1994, #106 ) ;
#235 = EDGE_CURVE ( 'NONE', #206, #130, #141, .T. ) ;
#236 = EDGE_LOOP ( 'NONE', ( #101, #209 ) ) ;
#237 = APPROVAL_DATE_TIME ( #124, #68 ) ;
#238 = EDGE_CURVE ( 'NONE', #214, #130, #38, .T. ) ;
#239 = VECTOR ( 'NONE', #246, 1000.000000000000000 ) ;
#240 = ADVANCED_FACE ( 'NONE', ( #119 ), #107, .T. ) ;
#241 = CARTESIAN_POINT ( 'NONE',  ( -4.750000000000000000, 0.0000000000000000000, 0.0000000000000000000 ) ) ;
#242 = DIRECTION ( 'NONE',  ( 0.0000000000000000000, 0.0000000000000000000, -1.000000000000000000 ) ) ;
#243 = PERSON_AND_ORGANIZATION ( #27, #108 ) ;
#244 = DIRECTION ( 'NONE',  ( -1.000000000000000000, -0.0000000000000000000, -0.0000000000000000000 ) ) ;
#245 = AXIS2_PLACEMENT_3D ( 'NONE', #13, #269, #242 ) ;
#246 = DIRECTION ( 'NONE',  ( -0.7071067811865279200, 8.659560562355175700E-017, -0.7071067811865672200 ) ) ;
#247 = FACE_OUTER_BOUND ( 'NONE', #236, .T. ) ;
#248 = CARTESIAN_POINT ( 'NONE',  ( 5.000000000000000000, 0.0000000000000000000, 0.0000000000000000000 ) ) ;
#249 = CARTESIAN_POINT ( 'NONE',  ( 4.750000000000096800, 0.0000000000000000000, 0.0000000000000000000 ) ) ;
#250 = CARTESIAN_POINT ( 'NONE',  ( 0.0000000000000000000, 0.0000000000000000000, 0.0000000000000000000 ) ) ;
#251 = APPROVAL_DATE_TIME ( #161, #256 ) ;
#252 = DIRECTION ( 'NONE',  ( 0.0000000000000000000, 0.0000000000000000000, -1.000000000000000000 ) ) ;
#253 = APPROVAL_ROLE ( '' ) ;
#254 = DATE_TIME_ROLE ( 'creation_date' ) ;
#255 = FACE_OUTER_BOUND ( 'NONE', #72, .T. ) ;
#256 = APPROVAL ( #190, 'UNSPECIFIED' ) ;
#257 = LINE ( 'NONE', #271, #60 ) ;
#258 = LOCAL_TIME ( 14, 39, 9.000000000000000000, #199 ) ;
#259 = VERTEX_POINT ( 'NONE', #61 ) ;
#260 = ORIENTED_EDGE ( 'NONE', *, *, #35, .F. ) ;
#261 = ORIENTED_EDGE ( 'NONE', *, *, #3, .T. ) ;
#262 = COORDINATED_UNIVERSAL_TIME_OFFSET ( 5, 0, .BEHIND. ) ;
#263 = CARTESIAN_POINT ( 'NONE',  ( -4.750000000000000000, 0.0000000000000000000, 0.0000000000000000000 ) ) ;
#264 = CLOSED_SHELL ( 'NONE', ( #56, #138, #240, #32, #52, #10, #197, #159 ) ) ;
#265 = AXIS2_PLACEMENT_3D ( 'NONE', #77, #275, #186 ) ;
#266 = DIRECTION ( 'NONE',  ( 0.0000000000000000000, 0.0000000000000000000, -1.000000000000000000 ) ) ;
#267 = ORIENTED_EDGE ( 'NONE', *, *, #238, .F. ) ;
#268 = ORIENTED_EDGE ( 'NONE', *, *, #160, .T. ) ;
#269 = DIRECTION ( 'NONE',  ( 1.000000000000000000, 0.0000000000000000000, 0.0000000000000000000 ) ) ;
#270 = DIRECTION ( 'NONE',  ( 1.000000000000000000, 0.0000000000000000000, 0.0000000000000000000 ) ) ;
#271 = CARTESIAN_POINT ( 'NONE',  ( 5.000000000000000000, 9.184850993605150300E-015, -75.00000000000001400 ) ) ;
#272 = COORDINATED_UNIVERSAL_TIME_OFFSET ( 5, 0, .BEHIND. ) ;
#273 = ORIENTED_EDGE ( 'NONE', *, *, #185, .F. ) ;
#274 = CC_DESIGN_PERSON_AND_ORGANIZATION_ASSIGNMENT ( #208, #232, ( #67 ) ) ;
#275 = DIRECTION ( 'NONE',  ( 1.000000000000000000, 0.0000000000000000000, 0.0000000000000000000 ) ) ;
ENDSEC;
END-ISO-10303-21;
