ISO-10303-21;
HEADER;
FILE_DESCRIPTION (( 'STEP AP214' ),
    '1' );
FILE_NAME ('3336-E0W.STEP',
    '2010-08-27T13:06:34',
    ( 'Admin' ),
    ( 'Thorlabs, Inc.' ),
    'SwSTEP 2.0',
    'SolidWorks 2009',
    '' );
FILE_SCHEMA (( 'AUTOMOTIVE_DESIGN' ));
ENDSEC;

DATA;
#1 = ADVANCED_FACE ( 'NONE', ( #59 ), #74, .T. ) ;
#2 =( NAMED_UNIT ( * ) SI_UNIT ( $, .STERADIAN. ) SOLID_ANGLE_UNIT ( ) );
#3 = MECHANICAL_DESIGN_GEOMETRIC_PRESENTATION_REPRESENTATION (  '', ( #79 ), #11 ) ;
#4 = MANIFOLD_SOLID_BREP ( 'NONE', #45 ) ;
#5 =( GEOMETRIC_REPRESENTATION_CONTEXT ( 3 ) GLOBAL_UNCERTAINTY_ASSIGNED_CONTEXT ( ( #6 ) ) GLOBAL_UNIT_ASSIGNED_CONTEXT ( ( #60, #73, #2 ) ) REPRESENTATION_CONTEXT ( 'NONE', 'WORKASPACE' ) );
#6 = UNCERTAINTY_MEASURE_WITH_UNIT (LENGTH_MEASURE( 1.000000000000000100E-005 ), #60, 'distance_accuracy_value', 'NONE');
#7 =( LENGTH_UNIT ( ) NAMED_UNIT ( * ) SI_UNIT ( $, .METRE. ) );
#8 = FACE_OUTER_BOUND ( 'NONE', #46, .T. ) ;
#9 = COLOUR_RGB ( '',1.000000000000000000, 1.000000000000000000, 1.000000000000000000 ) ;
#10 = FILL_AREA_STYLE_COLOUR ( '', #9 ) ;
#11 =( GEOMETRIC_REPRESENTATION_CONTEXT ( 3 ) GLOBAL_UNCERTAINTY_ASSIGNED_CONTEXT ( ( #58 ) ) GLOBAL_UNIT_ASSIGNED_CONTEXT ( ( #17, #13, #12 ) ) REPRESENTATION_CONTEXT ( 'NONE', 'WORKASPACE' ) );
#12 =( NAMED_UNIT ( * ) SI_UNIT ( $, .STERADIAN. ) SOLID_ANGLE_UNIT ( ) );
#13 =( NAMED_UNIT ( * ) PLANE_ANGLE_UNIT ( ) SI_UNIT ( $, .RADIAN. ) );
#14 = FILL_AREA_STYLE ('',( #10 ) ) ;
#15 = DIMENSIONAL_EXPONENTS ( 1.000000000000000000, 0.0000000000000000000, 0.0000000000000000000, 0.0000000000000000000, 0.0000000000000000000, 0.0000000000000000000, 0.0000000000000000000 ) ;
#16 = LENGTH_MEASURE_WITH_UNIT ( LENGTH_MEASURE( 0.02539999999999999900 ), #7 );
#17 =( CONVERSION_BASED_UNIT ( 'INCH', #16 ) LENGTH_UNIT ( ) NAMED_UNIT ( #15 ) );
#18 = EDGE_LOOP ( 'NONE', ( #21, #44 ) ) ;
#19 = ORIENTED_EDGE ( 'NONE', *, *, #56, .F. ) ;
#20 = ADVANCED_FACE ( 'NONE', ( #8 ), #119, .T. ) ;
#21 = ORIENTED_EDGE ( 'NONE', *, *, #42, .T. ) ;
#22 = ORIENTED_EDGE ( 'NONE', *, *, #23, .T. ) ;
#23 = EDGE_CURVE ( 'NONE', #51, #24, #164, .T. ) ;
#24 = VERTEX_POINT ( 'NONE', #146 ) ;
#25 = ADVANCED_FACE ( 'NONE', ( #145 ), #112, .T. ) ;
#26 = ORIENTED_EDGE ( 'NONE', *, *, #53, .T. ) ;
#27 = ADVANCED_FACE ( 'NONE', ( #110 ), #158, .T. ) ;
#28 = EDGE_CURVE ( 'NONE', #50, #43, #153, .T. ) ;
#29 = EDGE_CURVE ( 'NONE', #24, #43, #183, .T. ) ;
#30 = ORIENTED_EDGE ( 'NONE', *, *, #28, .F. ) ;
#31 = ORIENTED_EDGE ( 'NONE', *, *, #38, .F. ) ;
#32 = ORIENTED_EDGE ( 'NONE', *, *, #49, .F. ) ;
#33 = EDGE_LOOP ( 'NONE', ( #34, #36, #35, #55 ) ) ;
#34 = ORIENTED_EDGE ( 'NONE', *, *, #23, .F. ) ;
#35 = ORIENTED_EDGE ( 'NONE', *, *, #28, .T. ) ;
#36 = ORIENTED_EDGE ( 'NONE', *, *, #56, .T. ) ;
#37 = ORIENTED_EDGE ( 'NONE', *, *, #38, .T. ) ;
#38 = EDGE_CURVE ( 'NONE', #54, #51, #166, .T. ) ;
#39 = ADVANCED_FACE ( 'NONE', ( #191 ), #243, .T. ) ;
#40 = EDGE_LOOP ( 'NONE', ( #31, #26, #19 ) ) ;
#41 = ORIENTED_EDGE ( 'NONE', *, *, #42, .F. ) ;
#42 = EDGE_CURVE ( 'NONE', #43, #24, #201, .T. ) ;
#43 = VERTEX_POINT ( 'NONE', #196 ) ;
#44 = ORIENTED_EDGE ( 'NONE', *, *, #29, .T. ) ;
#45 = CLOSED_SHELL ( 'NONE', ( #1, #20, #39, #25, #27 ) ) ;
#46 = EDGE_LOOP ( 'NONE', ( #52, #37, #32 ) ) ;
#47 = EDGE_LOOP ( 'NONE', ( #48, #22, #41, #30 ) ) ;
#48 = ORIENTED_EDGE ( 'NONE', *, *, #49, .T. ) ;
#49 = EDGE_CURVE ( 'NONE', #50, #51, #208, .T. ) ;
#50 = VERTEX_POINT ( 'NONE', #203 ) ;
#51 = VERTEX_POINT ( 'NONE', #202 ) ;
#52 = ORIENTED_EDGE ( 'NONE', *, *, #53, .F. ) ;
#53 = EDGE_CURVE ( 'NONE', #54, #50, #265, .T. ) ;
#54 = VERTEX_POINT ( 'NONE', #260 ) ;
#55 = ORIENTED_EDGE ( 'NONE', *, *, #29, .F. ) ;
#56 = EDGE_CURVE ( 'NONE', #51, #50, #259, .T. ) ;
#57 = COLOUR_RGB ( '',1.000000000000000000, 1.000000000000000000, 1.000000000000000000 ) ;
#58 = UNCERTAINTY_MEASURE_WITH_UNIT (LENGTH_MEASURE( 1.000000000000000100E-005 ), #17, 'distance_accuracy_value', 'NONE');
#59 = FACE_OUTER_BOUND ( 'NONE', #47, .T. ) ;
#60 =( CONVERSION_BASED_UNIT ( 'INCH', #61 ) LENGTH_UNIT ( ) NAMED_UNIT ( #70 ) );
#61 = LENGTH_MEASURE_WITH_UNIT ( LENGTH_MEASURE( 0.02539999999999999900 ), #67 );
#62 = SURFACE_STYLE_FILL_AREA ( #63 ) ;
#63 = FILL_AREA_STYLE ('',( #66 ) ) ;
#64 = PRESENTATION_STYLE_ASSIGNMENT (( #65 ) ) ;
#65 = SURFACE_STYLE_USAGE ( .BOTH. , #72 ) ;
#66 = FILL_AREA_STYLE_COLOUR ( '', #57 ) ;
#67 =( LENGTH_UNIT ( ) NAMED_UNIT ( * ) SI_UNIT ( $, .METRE. ) );
#68 = MECHANICAL_DESIGN_GEOMETRIC_PRESENTATION_REPRESENTATION (  '', ( #71 ), #5 ) ;
#69 = PRESENTATION_LAYER_ASSIGNMENT (  '', '', ( #71 ) ) ;
#70 = DIMENSIONAL_EXPONENTS ( 1.000000000000000000, 0.0000000000000000000, 0.0000000000000000000, 0.0000000000000000000, 0.0000000000000000000, 0.0000000000000000000, 0.0000000000000000000 ) ;
#71 = STYLED_ITEM ( 'NONE', ( #64 ), #1 ) ;
#72 = SURFACE_SIDE_STYLE ('',( #62 ) ) ;
#73 =( NAMED_UNIT ( * ) PLANE_ANGLE_UNIT ( ) SI_UNIT ( $, .RADIAN. ) );
#74 = CYLINDRICAL_SURFACE ( 'NONE', #76, 0.4999999999999999400 ) ;
#75 = DIRECTION ( 'NONE',  ( -0.0000000000000000000, 3.061515884555943100E-016, -1.000000000000000000 ) ) ;
#76 = AXIS2_PLACEMENT_3D ( 'NONE', #77, #75, #84 ) ;
#77 = CARTESIAN_POINT ( 'NONE',  ( 0.0000000000000000000, 1.610309142427850400E-017, -0.04291338582677165600 ) ) ;
#78 = PRESENTATION_LAYER_ASSIGNMENT (  '', '', ( #79 ) ) ;
#79 = STYLED_ITEM ( 'NONE', ( #80 ), #4 ) ;
#80 = PRESENTATION_STYLE_ASSIGNMENT (( #81 ) ) ;
#81 = SURFACE_STYLE_USAGE ( .BOTH. , #82 ) ;
#82 = SURFACE_SIDE_STYLE ('',( #83 ) ) ;
#83 = SURFACE_STYLE_FILL_AREA ( #85 ) ;
#84 = DIRECTION ( 'NONE',  ( 0.0000000000000000000, 1.000000000000000000, 3.073328992872296900E-016 ) ) ;
#85 = FILL_AREA_STYLE ('',( #86 ) ) ;
#86 = FILL_AREA_STYLE_COLOUR ( '', #87 ) ;
#87 = COLOUR_RGB ( '',0.7960784313725489700, 0.8235294117647058400, 0.9372549019607843100 ) ;
#88 = MECHANICAL_DESIGN_GEOMETRIC_PRESENTATION_REPRESENTATION (  '', ( #91 ), #162 ) ;
#89 = SURFACE_SIDE_STYLE ('',( #95 ) ) ;
#90 = PRESENTATION_STYLE_ASSIGNMENT (( #93 ) ) ;
#91 = STYLED_ITEM ( 'NONE', ( #90 ), #20 ) ;
#92 = PRESENTATION_LAYER_ASSIGNMENT (  '', '', ( #91 ) ) ;
#93 = SURFACE_STYLE_USAGE ( .BOTH. , #89 ) ;
#94 = DIMENSIONAL_EXPONENTS ( 1.000000000000000000, 0.0000000000000000000, 0.0000000000000000000, 0.0000000000000000000, 0.0000000000000000000, 0.0000000000000000000, 0.0000000000000000000 ) ;
#95 = SURFACE_STYLE_FILL_AREA ( #14 ) ;
#96 =( NAMED_UNIT ( * ) PLANE_ANGLE_UNIT ( ) SI_UNIT ( $, .RADIAN. ) );
#97 =( LENGTH_UNIT ( ) NAMED_UNIT ( * ) SI_UNIT ( $, .METRE. ) );
#98 =( CONVERSION_BASED_UNIT ( 'INCH', #99 ) LENGTH_UNIT ( ) NAMED_UNIT ( #94 ) );
#99 = LENGTH_MEASURE_WITH_UNIT ( LENGTH_MEASURE( 0.02539999999999999900 ), #97 );
#100 =( LENGTH_UNIT ( ) NAMED_UNIT ( * ) SI_UNIT ( $, .METRE. ) );
#101 = MECHANICAL_DESIGN_GEOMETRIC_PRESENTATION_REPRESENTATION (  '', ( #103 ), #113 ) ;
#102 = PRESENTATION_LAYER_ASSIGNMENT (  '', '', ( #103 ) ) ;
#103 = STYLED_ITEM ( 'NONE', ( #104 ), #25 ) ;
#104 = PRESENTATION_STYLE_ASSIGNMENT (( #105 ) ) ;
#105 = SURFACE_STYLE_USAGE ( .BOTH. , #106 ) ;
#106 = SURFACE_SIDE_STYLE ('',( #141 ) ) ;
#107 = UNCERTAINTY_MEASURE_WITH_UNIT (LENGTH_MEASURE( 1.000000000000000100E-005 ), #98, 'distance_accuracy_value', 'NONE');
#108 =( NAMED_UNIT ( * ) SI_UNIT ( $, .STERADIAN. ) SOLID_ANGLE_UNIT ( ) );
#109 = AXIS2_PLACEMENT_3D ( 'NONE', #140, #139, #138 ) ;
#110 = FACE_OUTER_BOUND ( 'NONE', #33, .T. ) ;
#111 = FILL_AREA_STYLE_COLOUR ( '', #137 ) ;
#112 = SPHERICAL_SURFACE ( 'NONE', #109, 17.08188976377952900 ) ;
#113 =( GEOMETRIC_REPRESENTATION_CONTEXT ( 3 ) GLOBAL_UNCERTAINTY_ASSIGNED_CONTEXT ( ( #114 ) ) GLOBAL_UNIT_ASSIGNED_CONTEXT ( ( #121, #116, #115 ) ) REPRESENTATION_CONTEXT ( 'NONE', 'WORKASPACE' ) );
#114 = UNCERTAINTY_MEASURE_WITH_UNIT (LENGTH_MEASURE( 1.000000000000000100E-005 ), #121, 'distance_accuracy_value', 'NONE');
#115 =( NAMED_UNIT ( * ) SI_UNIT ( $, .STERADIAN. ) SOLID_ANGLE_UNIT ( ) );
#116 =( NAMED_UNIT ( * ) PLANE_ANGLE_UNIT ( ) SI_UNIT ( $, .RADIAN. ) );
#117 = DIRECTION ( 'NONE',  ( 1.000000000000000000, 0.0000000000000000000, -0.0000000000000000000 ) ) ;
#118 = AXIS2_PLACEMENT_3D ( 'NONE', #149, #117, #120 ) ;
#119 = SPHERICAL_SURFACE ( 'NONE', #118, 17.08188976377952900 ) ;
#120 = DIRECTION ( 'NONE',  ( 0.0000000000000000000, 1.000000000000000000, 2.558825077498747200E-016 ) ) ;
#121 =( CONVERSION_BASED_UNIT ( 'INCH', #122 ) LENGTH_UNIT ( ) NAMED_UNIT ( #123 ) );
#122 = LENGTH_MEASURE_WITH_UNIT ( LENGTH_MEASURE( 0.02539999999999999900 ), #100 );
#123 = DIMENSIONAL_EXPONENTS ( 1.000000000000000000, 0.0000000000000000000, 0.0000000000000000000, 0.0000000000000000000, 0.0000000000000000000, 0.0000000000000000000, 0.0000000000000000000 ) ;
#124 =( NAMED_UNIT ( * ) PLANE_ANGLE_UNIT ( ) SI_UNIT ( $, .RADIAN. ) );
#125 =( CONVERSION_BASED_UNIT ( 'INCH', #126 ) LENGTH_UNIT ( ) NAMED_UNIT ( #127 ) );
#126 = LENGTH_MEASURE_WITH_UNIT ( LENGTH_MEASURE( 0.02539999999999999900 ), #128 );
#127 = DIMENSIONAL_EXPONENTS ( 1.000000000000000000, 0.0000000000000000000, 0.0000000000000000000, 0.0000000000000000000, 0.0000000000000000000, 0.0000000000000000000, 0.0000000000000000000 ) ;
#128 =( LENGTH_UNIT ( ) NAMED_UNIT ( * ) SI_UNIT ( $, .METRE. ) );
#129 = MECHANICAL_DESIGN_GEOMETRIC_PRESENTATION_REPRESENTATION (  '', ( #131 ), #159 ) ;
#130 = PRESENTATION_LAYER_ASSIGNMENT (  '', '', ( #131 ) ) ;
#131 = STYLED_ITEM ( 'NONE', ( #132 ), #27 ) ;
#132 = PRESENTATION_STYLE_ASSIGNMENT (( #133 ) ) ;
#133 = SURFACE_STYLE_USAGE ( .BOTH. , #134 ) ;
#134 = SURFACE_SIDE_STYLE ('',( #135 ) ) ;
#135 = SURFACE_STYLE_FILL_AREA ( #136 ) ;
#136 = FILL_AREA_STYLE ('',( #111 ) ) ;
#137 = COLOUR_RGB ( '',1.000000000000000000, 1.000000000000000000, 1.000000000000000000 ) ;
#138 = DIRECTION ( 'NONE',  ( 0.0000000000000000000, 1.000000000000000000, 2.558825077498747200E-016 ) ) ;
#139 = DIRECTION ( 'NONE',  ( 1.000000000000000000, 0.0000000000000000000, -0.0000000000000000000 ) ) ;
#140 = CARTESIAN_POINT ( 'NONE',  ( 0.0000000000000000000, 2.081686162952315100E-015, -17.03897637795275700 ) ) ;
#141 = SURFACE_STYLE_FILL_AREA ( #142 ) ;
#142 = FILL_AREA_STYLE ('',( #143 ) ) ;
#143 = FILL_AREA_STYLE_COLOUR ( '', #144 ) ;
#144 = COLOUR_RGB ( '',1.000000000000000000, 1.000000000000000000, 1.000000000000000000 ) ;
#145 = FACE_OUTER_BOUND ( 'NONE', #40, .T. ) ;
#146 = CARTESIAN_POINT ( 'NONE',  ( 6.123031769111887500E-017, -0.5000000000000001100, -0.04291338582677196200 ) ) ;
#147 = DIRECTION ( 'NONE',  ( -0.0000000000000000000, 3.061515884555943100E-016, -1.000000000000000000 ) ) ;
#148 = VECTOR ( 'NONE', #147, 39.37007874015748100 ) ;
#149 = CARTESIAN_POINT ( 'NONE',  ( 0.0000000000000000000, 2.081686162952315100E-015, -17.03897637795275700 ) ) ;
#150 = DIRECTION ( 'NONE',  ( -0.0000000000000000000, 3.061515884555943100E-016, -1.000000000000000000 ) ) ;
#151 = VECTOR ( 'NONE', #150, 39.37007874015748100 ) ;
#152 = CARTESIAN_POINT ( 'NONE',  ( 0.0000000000000000000, 0.4999999999999999400, -0.04291338582677150400 ) ) ;
#153 = LINE ( 'NONE', #152, #151 ) ;
#154 = DIRECTION ( 'NONE',  ( 0.0000000000000000000, 1.000000000000000000, 3.073328992872296900E-016 ) ) ;
#155 = DIRECTION ( 'NONE',  ( -0.0000000000000000000, 3.061515884555943100E-016, -1.000000000000000000 ) ) ;
#156 = CARTESIAN_POINT ( 'NONE',  ( 0.0000000000000000000, 1.610309142427850400E-017, -0.04291338582677165600 ) ) ;
#157 = AXIS2_PLACEMENT_3D ( 'NONE', #156, #155, #154 ) ;
#158 = CYLINDRICAL_SURFACE ( 'NONE', #157, 0.4999999999999999400 ) ;
#159 =( GEOMETRIC_REPRESENTATION_CONTEXT ( 3 ) GLOBAL_UNCERTAINTY_ASSIGNED_CONTEXT ( ( #160 ) ) GLOBAL_UNIT_ASSIGNED_CONTEXT ( ( #125, #124, #161 ) ) REPRESENTATION_CONTEXT ( 'NONE', 'WORKASPACE' ) );
#160 = UNCERTAINTY_MEASURE_WITH_UNIT (LENGTH_MEASURE( 1.000000000000000100E-005 ), #125, 'distance_accuracy_value', 'NONE');
#161 =( NAMED_UNIT ( * ) SI_UNIT ( $, .STERADIAN. ) SOLID_ANGLE_UNIT ( ) );
#162 =( GEOMETRIC_REPRESENTATION_CONTEXT ( 3 ) GLOBAL_UNCERTAINTY_ASSIGNED_CONTEXT ( ( #107 ) ) GLOBAL_UNIT_ASSIGNED_CONTEXT ( ( #98, #96, #108 ) ) REPRESENTATION_CONTEXT ( 'NONE', 'WORKASPACE' ) );
#163 = CARTESIAN_POINT ( 'NONE',  ( 6.123031769111885100E-017, -0.4999999999999999400, -0.04291338582677180900 ) ) ;
#164 = LINE ( 'NONE', #163, #148 ) ;
#165 = CARTESIAN_POINT ( 'NONE',  ( 0.0000000000000000000, 2.081686162952315100E-015, -17.03897637795275700 ) ) ;
#166 = CIRCLE ( 'NONE', #186, 17.08188976377952900 ) ;
#167 = FILL_AREA_STYLE_COLOUR ( '', #190 ) ;
#168 = DIMENSIONAL_EXPONENTS ( 1.000000000000000000, 0.0000000000000000000, 0.0000000000000000000, 0.0000000000000000000, 0.0000000000000000000, 0.0000000000000000000, 0.0000000000000000000 ) ;
#169 =( GEOMETRIC_REPRESENTATION_CONTEXT ( 3 ) GLOBAL_UNCERTAINTY_ASSIGNED_CONTEXT ( ( #170 ) ) GLOBAL_UNIT_ASSIGNED_CONTEXT ( ( #173, #172, #171 ) ) REPRESENTATION_CONTEXT ( 'NONE', 'WORKASPACE' ) );
#170 = UNCERTAINTY_MEASURE_WITH_UNIT (LENGTH_MEASURE( 1.000000000000000100E-005 ), #173, 'distance_accuracy_value', 'NONE');
#171 =( NAMED_UNIT ( * ) SI_UNIT ( $, .STERADIAN. ) SOLID_ANGLE_UNIT ( ) );
#172 =( NAMED_UNIT ( * ) PLANE_ANGLE_UNIT ( ) SI_UNIT ( $, .RADIAN. ) );
#173 =( CONVERSION_BASED_UNIT ( 'INCH', #174 ) LENGTH_UNIT ( ) NAMED_UNIT ( #175 ) );
#174 = LENGTH_MEASURE_WITH_UNIT ( LENGTH_MEASURE( 0.02539999999999999900 ), #176 );
#175 = DIMENSIONAL_EXPONENTS ( 1.000000000000000000, 0.0000000000000000000, 0.0000000000000000000, 0.0000000000000000000, 0.0000000000000000000, 0.0000000000000000000, 0.0000000000000000000 ) ;
#176 =( LENGTH_UNIT ( ) NAMED_UNIT ( * ) SI_UNIT ( $, .METRE. ) );
#177 = SHAPE_DEFINITION_REPRESENTATION ( #233, #220 ) ;
#178 = DIRECTION ( 'NONE',  ( 1.000000000000000000, 0.0000000000000000000, 0.0000000000000000000 ) ) ;
#179 = DIRECTION ( 'NONE',  ( 0.0000000000000000000, 0.0000000000000000000, 1.000000000000000000 ) ) ;
#180 = CARTESIAN_POINT ( 'NONE',  ( 0.0000000000000000000, 0.0000000000000000000, 0.0000000000000000000 ) ) ;
#181 =( CONVERSION_BASED_UNIT ( 'INCH', #182 ) LENGTH_UNIT ( ) NAMED_UNIT ( #168 ) );
#182 = LENGTH_MEASURE_WITH_UNIT ( LENGTH_MEASURE( 0.02539999999999999900 ), #252 );
#183 = CIRCLE ( 'NONE', #226, 0.5000000000000000000 ) ;
#184 = DIRECTION ( 'NONE',  ( -1.224606353822377300E-016, 1.000000000000000000, 0.0000000000000000000 ) ) ;
#185 = DIRECTION ( 'NONE',  ( 1.000000000000000000, 1.224606353822377300E-016, 3.749151804555343600E-032 ) ) ;
#186 = AXIS2_PLACEMENT_3D ( 'NONE', #165, #185, #184 ) ;
#187 = SURFACE_SIDE_STYLE ('',( #188 ) ) ;
#188 = SURFACE_STYLE_FILL_AREA ( #189 ) ;
#189 = FILL_AREA_STYLE ('',( #167 ) ) ;
#190 = COLOUR_RGB ( '',1.000000000000000000, 1.000000000000000000, 1.000000000000000000 ) ;
#191 = FACE_OUTER_BOUND ( 'NONE', #18, .T. ) ;
#192 = DIRECTION ( 'NONE',  ( 0.0000000000000000000, 1.000000000000000000, 3.061515884555943100E-016 ) ) ;
#193 = DIRECTION ( 'NONE',  ( -0.0000000000000000000, 3.061515884555943100E-016, -1.000000000000000000 ) ) ;
#194 = CARTESIAN_POINT ( 'NONE',  ( 0.0000000000000000000, 1.610309142427852600E-017, -0.04291338582677173300 ) ) ;
#195 = AXIS2_PLACEMENT_3D ( 'NONE', #194, #193, #192 ) ;
#196 = CARTESIAN_POINT ( 'NONE',  ( 0.0000000000000000000, 0.5000000000000000000, -0.04291338582677165600 ) ) ;
#197 = DIRECTION ( 'NONE',  ( 0.0000000000000000000, 1.000000000000000000, 3.073328992872296400E-016 ) ) ;
#198 = DIRECTION ( 'NONE',  ( -0.0000000000000000000, 3.061515884555943100E-016, -1.000000000000000000 ) ) ;
#199 = CARTESIAN_POINT ( 'NONE',  ( 0.0000000000000000000, 1.610309142427855000E-017, -0.04291338582677180900 ) ) ;
#200 = AXIS2_PLACEMENT_3D ( 'NONE', #199, #198, #197 ) ;
#201 = CIRCLE ( 'NONE', #200, 0.5000000000000000000 ) ;
#202 = CARTESIAN_POINT ( 'NONE',  ( 6.123031769111682900E-017, -0.4999999999999864600, 0.03559412621852444500 ) ) ;
#203 = CARTESIAN_POINT ( 'NONE',  ( 0.0000000000000000000, 0.4999999999999833500, 0.03559412621852459800 ) ) ;
#204 = DIRECTION ( 'NONE',  ( 0.0000000000000000000, 1.000000000000000000, 3.073328992872297400E-016 ) ) ;
#205 = DIRECTION ( 'NONE',  ( -0.0000000000000000000, 3.061515884555943100E-016, -1.000000000000000000 ) ) ;
#206 = CARTESIAN_POINT ( 'NONE',  ( 0.0000000000000000000, -7.932108094085264900E-018, 0.03559412621852334200 ) ) ;
#207 = AXIS2_PLACEMENT_3D ( 'NONE', #206, #205, #204 ) ;
#208 = CIRCLE ( 'NONE', #207, 0.4999999999999998300 ) ;
#209 = MECHANICAL_DESIGN_GEOMETRIC_PRESENTATION_REPRESENTATION (  '', ( #211 ), #169 ) ;
#210 = PRESENTATION_LAYER_ASSIGNMENT (  '', '', ( #211 ) ) ;
#211 = STYLED_ITEM ( 'NONE', ( #212 ), #220 ) ;
#212 = PRESENTATION_STYLE_ASSIGNMENT (( #213 ) ) ;
#213 = SURFACE_STYLE_USAGE ( .BOTH. , #214 ) ;
#214 = SURFACE_SIDE_STYLE ('',( #215 ) ) ;
#215 = SURFACE_STYLE_FILL_AREA ( #216 ) ;
#216 = FILL_AREA_STYLE ('',( #217 ) ) ;
#217 = FILL_AREA_STYLE_COLOUR ( '', #218 ) ;
#218 = COLOUR_RGB ( '',0.7960784313725489700, 0.8235294117647058400, 0.9372549019607843100 ) ;
#219 = APPLICATION_CONTEXT ( 'automotive_design' ) ;
#220 = ADVANCED_BREP_SHAPE_REPRESENTATION ( '3336-E0W', ( #4, #254 ), #221 ) ;
#221 =( GEOMETRIC_REPRESENTATION_CONTEXT ( 3 ) GLOBAL_UNCERTAINTY_ASSIGNED_CONTEXT ( ( #245 ) ) GLOBAL_UNIT_ASSIGNED_CONTEXT ( ( #248, #247, #246 ) ) REPRESENTATION_CONTEXT ( 'NONE', 'WORKASPACE' ) );
#222 =( NAMED_UNIT ( * ) SI_UNIT ( $, .STERADIAN. ) SOLID_ANGLE_UNIT ( ) );
#223 =( NAMED_UNIT ( * ) PLANE_ANGLE_UNIT ( ) SI_UNIT ( $, .RADIAN. ) );
#224 = DIRECTION ( 'NONE',  ( -0.0000000000000000000, 3.061515884555943100E-016, -1.000000000000000000 ) ) ;
#225 = CARTESIAN_POINT ( 'NONE',  ( 0.0000000000000000000, 1.610309142427855000E-017, -0.04291338582677180900 ) ) ;
#226 = AXIS2_PLACEMENT_3D ( 'NONE', #225, #224, #227 ) ;
#227 = DIRECTION ( 'NONE',  ( 0.0000000000000000000, 1.000000000000000000, 3.073328992872296400E-016 ) ) ;
#228 = PRESENTATION_LAYER_ASSIGNMENT (  '', '', ( #229 ) ) ;
#229 = STYLED_ITEM ( 'NONE', ( #230 ), #39 ) ;
#230 = PRESENTATION_STYLE_ASSIGNMENT (( #231 ) ) ;
#231 = SURFACE_STYLE_USAGE ( .BOTH. , #187 ) ;
#232 = UNCERTAINTY_MEASURE_WITH_UNIT (LENGTH_MEASURE( 1.000000000000000100E-005 ), #181, 'distance_accuracy_value', 'NONE');
#233 = PRODUCT_DEFINITION_SHAPE ( 'NONE', 'NONE',  #236 ) ;
#234 = PRODUCT_RELATED_PRODUCT_CATEGORY ( 'part', '', ( #240 ) ) ;
#235 = PRODUCT_DEFINITION_FORMATION_WITH_SPECIFIED_SOURCE ( 'ANY', '', #240, .NOT_KNOWN. ) ;
#236 = PRODUCT_DEFINITION ( 'UNKNOWN', '', #235, #237 ) ;
#237 = PRODUCT_DEFINITION_CONTEXT ( 'detailed design', #239, 'design' ) ;
#238 = APPLICATION_PROTOCOL_DEFINITION ( 'draft international standard', 'automotive_design', 1998, #239 ) ;
#239 = APPLICATION_CONTEXT ( 'automotive_design' ) ;
#240 = PRODUCT ( '3336-E0W', '3336-E0W', '', ( #241 ) ) ;
#241 = PRODUCT_CONTEXT ( 'NONE', #219, 'mechanical' ) ;
#242 = APPLICATION_PROTOCOL_DEFINITION ( 'draft international standard', 'automotive_design', 1998, #219 ) ;
#243 = PLANE ( 'NONE',  #195 ) ;
#244 =( GEOMETRIC_REPRESENTATION_CONTEXT ( 3 ) GLOBAL_UNCERTAINTY_ASSIGNED_CONTEXT ( ( #232 ) ) GLOBAL_UNIT_ASSIGNED_CONTEXT ( ( #181, #223, #222 ) ) REPRESENTATION_CONTEXT ( 'NONE', 'WORKASPACE' ) );
#245 = UNCERTAINTY_MEASURE_WITH_UNIT (LENGTH_MEASURE( 1.000000000000000100E-005 ), #248, 'distance_accuracy_value', 'NONE');
#246 =( NAMED_UNIT ( * ) SI_UNIT ( $, .STERADIAN. ) SOLID_ANGLE_UNIT ( ) );
#247 =( NAMED_UNIT ( * ) PLANE_ANGLE_UNIT ( ) SI_UNIT ( $, .RADIAN. ) );
#248 =( CONVERSION_BASED_UNIT ( 'INCH', #249 ) LENGTH_UNIT ( ) NAMED_UNIT ( #250 ) );
#249 = LENGTH_MEASURE_WITH_UNIT ( LENGTH_MEASURE( 0.02539999999999999900 ), #251 );
#250 = DIMENSIONAL_EXPONENTS ( 1.000000000000000000, 0.0000000000000000000, 0.0000000000000000000, 0.0000000000000000000, 0.0000000000000000000, 0.0000000000000000000, 0.0000000000000000000 ) ;
#251 =( LENGTH_UNIT ( ) NAMED_UNIT ( * ) SI_UNIT ( $, .METRE. ) );
#252 =( LENGTH_UNIT ( ) NAMED_UNIT ( * ) SI_UNIT ( $, .METRE. ) );
#253 = MECHANICAL_DESIGN_GEOMETRIC_PRESENTATION_REPRESENTATION (  '', ( #229 ), #244 ) ;
#254 = AXIS2_PLACEMENT_3D ( 'NONE', #180, #179, #178 ) ;
#255 = DIRECTION ( 'NONE',  ( 0.0000000000000000000, 1.000000000000000000, 3.073328992872297400E-016 ) ) ;
#256 = DIRECTION ( 'NONE',  ( -0.0000000000000000000, 3.061515884555943100E-016, -1.000000000000000000 ) ) ;
#257 = CARTESIAN_POINT ( 'NONE',  ( 0.0000000000000000000, -7.932108094085264900E-018, 0.03559412621852334200 ) ) ;
#258 = AXIS2_PLACEMENT_3D ( 'NONE', #257, #256, #255 ) ;
#259 = CIRCLE ( 'NONE', #258, 0.4999999999999998300 ) ;
#260 = CARTESIAN_POINT ( 'NONE',  ( 0.0000000000000000000, -2.102031985051252300E-015, 0.04291338582677305100 ) ) ;
#261 = DIRECTION ( 'NONE',  ( 0.0000000000000000000, 0.0000000000000000000, 1.000000000000000000 ) ) ;
#262 = DIRECTION ( 'NONE',  ( -1.000000000000000000, 0.0000000000000000000, 0.0000000000000000000 ) ) ;
#263 = CARTESIAN_POINT ( 'NONE',  ( 0.0000000000000000000, 2.081686162952315100E-015, -17.03897637795275700 ) ) ;
#264 = AXIS2_PLACEMENT_3D ( 'NONE', #263, #262, #261 ) ;
#265 = CIRCLE ( 'NONE', #264, 17.08188976377952900 ) ;
ENDSEC;
END-ISO-10303-21;
