ISO-10303-21;
HEADER;
FILE_DESCRIPTION (( 'STEP AP203' ),
    '1' );
FILE_NAME ('Web Model 63210.STEP',
    '2017-01-31T18:45:28',
    ( '' ),
    ( '' ),
    'SwSTEP 2.0',
    'SolidWorks 2016',
    '' );
FILE_SCHEMA (( 'CONFIG_CONTROL_DESIGN' ));
ENDSEC;

DATA;
#1 = DIRECTION ( 'NONE',  ( 1.000000000000000000, 0.0000000000000000000, 0.0000000000000000000 ) ) ;
#2 = PRODUCT_DEFINITION ( 'UNKNOWN', '', #48, #145 ) ;
#3 = APPLICATION_PROTOCOL_DEFINITION ( 'international standard', 'config_control_design', 1994, #59 ) ;
#4 = ORIENTED_EDGE ( 'NONE', *, *, #34, .T. ) ;
#5 = EDGE_CURVE ( 'NONE', #85, #121, #87, .T. ) ;
#6 = CC_DESIGN_PERSON_AND_ORGANIZATION_ASSIGNMENT ( #66, #138, ( #89 ) ) ;
#7 = EDGE_LOOP ( 'NONE', ( #111, #40 ) ) ;
#8 = APPROVAL_PERSON_ORGANIZATION ( #38, #158, #94 ) ;
#9 = CC_DESIGN_PERSON_AND_ORGANIZATION_ASSIGNMENT ( #174, #140, ( #134 ) ) ;
#10 = EDGE_LOOP ( 'NONE', ( #90, #4 ) ) ;
#11 = ORGANIZATION ( 'UNSPECIFIED', 'UNSPECIFIED', '' ) ;
#12 = AXIS2_PLACEMENT_3D ( 'NONE', #106, #120, #110 ) ;
#13 = MANIFOLD_SOLID_BREP ( 'Extrude1', #117 ) ;
#14 = ADVANCED_FACE ( 'NONE', ( #37 ), #175, .T. ) ;
#15 = APPROVAL_STATUS ( 'not_yet_approved' ) ;
#16 = CARTESIAN_POINT ( 'NONE',  ( 0.0000000000000000000, 0.0000000000000000000, 2.000000000000000000 ) ) ;
#17 = VERTEX_POINT ( 'NONE', #141 ) ;
#18 = CC_DESIGN_SECURITY_CLASSIFICATION ( #134, ( #48 ) ) ;
#19 =( NAMED_UNIT ( * ) SI_UNIT ( $, .STERADIAN. ) SOLID_ANGLE_UNIT ( ) );
#20 = SECURITY_CLASSIFICATION_LEVEL ( 'unclassified' ) ;
#21 = LINE ( 'NONE', #152, #154 ) ;
#22 = PERSON_AND_ORGANIZATION ( #99, #11 ) ;
#23 = CARTESIAN_POINT ( 'NONE',  ( -10.00000000000000000, 0.0000000000000000000, 0.0000000000000000000 ) ) ;
#24 = AXIS2_PLACEMENT_3D ( 'NONE', #36, #62, #65 ) ;
#25 = CARTESIAN_POINT ( 'NONE',  ( 0.0000000000000000000, 0.0000000000000000000, 0.0000000000000000000 ) ) ;
#26 = ADVANCED_BREP_SHAPE_REPRESENTATION ( 'Web Model 63210', ( #13, #12 ), #60 ) ;
#27 = COORDINATED_UNIVERSAL_TIME_OFFSET ( 5, 0, .BEHIND. ) ;
#28 = PERSON_AND_ORGANIZATION ( #99, #11 ) ;
#29 = COORDINATED_UNIVERSAL_TIME_OFFSET ( 5, 0, .BEHIND. ) ;
#30 = APPROVAL_STATUS ( 'not_yet_approved' ) ;
#31 =( LENGTH_UNIT ( ) NAMED_UNIT ( * ) SI_UNIT ( .MILLI., .METRE. ) );
#32 = ORIENTED_EDGE ( 'NONE', *, *, #5, .T. ) ;
#33 = AXIS2_PLACEMENT_3D ( 'NONE', #16, #107, #124 ) ;
#34 = EDGE_CURVE ( 'NONE', #43, #17, #49, .T. ) ;
#35 = CC_DESIGN_PERSON_AND_ORGANIZATION_ASSIGNMENT ( #28, #108, ( #48 ) ) ;
#36 = CARTESIAN_POINT ( 'NONE',  ( 0.0000000000000000000, 0.0000000000000000000, 2.000000000000000000 ) ) ;
#37 = FACE_OUTER_BOUND ( 'NONE', #10, .T. ) ;
#38 = PERSON_AND_ORGANIZATION ( #99, #11 ) ;
#39 = APPROVAL ( #30, 'UNSPECIFIED' ) ;
#40 = ORIENTED_EDGE ( 'NONE', *, *, #52, .F. ) ;
#41 = LOCAL_TIME ( 13, 45, 28.00000000000000000, #27 ) ;
#42 = EDGE_CURVE ( 'NONE', #43, #121, #21, .T. ) ;
#43 = VERTEX_POINT ( 'NONE', #122 ) ;
#44 = COORDINATED_UNIVERSAL_TIME_OFFSET ( 5, 0, .BEHIND. ) ;
#45 = SHAPE_DEFINITION_REPRESENTATION ( #101, #26 ) ;
#46 = CARTESIAN_POINT ( 'NONE',  ( 0.0000000000000000000, 0.0000000000000000000, 2.000000000000000000 ) ) ;
#47 = PERSON_AND_ORGANIZATION_ROLE ( 'creator' ) ;
#48 = PRODUCT_DEFINITION_FORMATION_WITH_SPECIFIED_SOURCE ( 'ANY', '', #89, .NOT_KNOWN. ) ;
#49 = CIRCLE ( 'NONE', #77, 10.00000000000000000 ) ;
#50 = DATE_AND_TIME ( #100, #144 ) ;
#51 = CARTESIAN_POINT ( 'NONE',  ( -10.00000000000000000, 0.0000000000000000000, 2.000000000000000000 ) ) ;
#52 = EDGE_CURVE ( 'NONE', #121, #85, #161, .T. ) ;
#53 = LOCAL_TIME ( 13, 45, 28.00000000000000000, #169 ) ;
#54 = AXIS2_PLACEMENT_3D ( 'NONE', #156, #160, #171 ) ;
#55 = FACE_OUTER_BOUND ( 'NONE', #104, .T. ) ;
#56 = APPROVAL ( #15, 'UNSPECIFIED' ) ;
#57 = CALENDAR_DATE ( 2017, 31, 1 ) ;
#58 = DIRECTION ( 'NONE',  ( 0.0000000000000000000, 0.0000000000000000000, 1.000000000000000000 ) ) ;
#59 = APPLICATION_CONTEXT ( 'configuration controlled 3d designs of mechanical parts and assemblies' ) ;
#60 =( GEOMETRIC_REPRESENTATION_CONTEXT ( 3 ) GLOBAL_UNCERTAINTY_ASSIGNED_CONTEXT ( ( #159 ) ) GLOBAL_UNIT_ASSIGNED_CONTEXT ( ( #31, #70, #19 ) ) REPRESENTATION_CONTEXT ( 'NONE', 'WORKASPACE' ) );
#61 = ORIENTED_EDGE ( 'NONE', *, *, #52, .T. ) ;
#62 = DIRECTION ( 'NONE',  ( -0.0000000000000000000, -0.0000000000000000000, -1.000000000000000000 ) ) ;
#63 = ORIENTED_EDGE ( 'NONE', *, *, #153, .F. ) ;
#64 = CALENDAR_DATE ( 2017, 31, 1 ) ;
#65 = DIRECTION ( 'NONE',  ( -1.000000000000000000, 0.0000000000000000000, 0.0000000000000000000 ) ) ;
#66 = PERSON_AND_ORGANIZATION ( #99, #11 ) ;
#67 = AXIS2_PLACEMENT_3D ( 'NONE', #82, #151, #91 ) ;
#68 = CALENDAR_DATE ( 2017, 31, 1 ) ;
#69 = EDGE_LOOP ( 'NONE', ( #74, #131, #127, #32 ) ) ;
#70 =( NAMED_UNIT ( * ) PLANE_ANGLE_UNIT ( ) SI_UNIT ( $, .RADIAN. ) );
#71 = CC_DESIGN_DATE_AND_TIME_ASSIGNMENT ( #168, #96, ( #134 ) ) ;
#72 = DIRECTION ( 'NONE',  ( 0.0000000000000000000, 0.0000000000000000000, 1.000000000000000000 ) ) ;
#73 = CC_DESIGN_APPROVAL ( #158, ( #2 ) ) ;
#74 = ORIENTED_EDGE ( 'NONE', *, *, #42, .F. ) ;
#75 = LOCAL_TIME ( 13, 45, 28.00000000000000000, #143 ) ;
#76 = CC_DESIGN_PERSON_AND_ORGANIZATION_ASSIGNMENT ( #79, #47, ( #2 ) ) ;
#77 = AXIS2_PLACEMENT_3D ( 'NONE', #46, #97, #114 ) ;
#78 = PRODUCT_RELATED_PRODUCT_CATEGORY ( 'detail', '', ( #89 ) ) ;
#79 = PERSON_AND_ORGANIZATION ( #99, #11 ) ;
#80 = APPLICATION_PROTOCOL_DEFINITION ( 'international standard', 'config_control_design', 1994, #123 ) ;
#81 = CALENDAR_DATE ( 2017, 31, 1 ) ;
#82 = CARTESIAN_POINT ( 'NONE',  ( 0.0000000000000000000, 0.0000000000000000000, 2.000000000000000000 ) ) ;
#83 = DIRECTION ( 'NONE',  ( 1.000000000000000000, 0.0000000000000000000, 0.0000000000000000000 ) ) ;
#84 = AXIS2_PLACEMENT_3D ( 'NONE', #25, #72, #83 ) ;
#85 = VERTEX_POINT ( 'NONE', #23 ) ;
#86 = CC_DESIGN_APPROVAL ( #56, ( #48 ) ) ;
#87 = CIRCLE ( 'NONE', #173, 10.00000000000000000 ) ;
#88 = CYLINDRICAL_SURFACE ( 'NONE', #67, 10.00000000000000000 ) ;
#89 = PRODUCT ( 'Web Model 63210', 'Web Model 63210', '', ( #164 ) ) ;
#90 = ORIENTED_EDGE ( 'NONE', *, *, #157, .T. ) ;
#91 = DIRECTION ( 'NONE',  ( -1.000000000000000000, 0.0000000000000000000, 0.0000000000000000000 ) ) ;
#92 = DATE_AND_TIME ( #81, #53 ) ;
#93 = DATE_TIME_ROLE ( 'creation_date' ) ;
#94 = APPROVAL_ROLE ( '' ) ;
#95 = APPROVAL_DATE_TIME ( #50, #56 ) ;
#96 = DATE_TIME_ROLE ( 'classification_date' ) ;
#97 = DIRECTION ( 'NONE',  ( 0.0000000000000000000, 0.0000000000000000000, 1.000000000000000000 ) ) ;
#98 = DIRECTION ( 'NONE',  ( 0.0000000000000000000, 0.0000000000000000000, 1.000000000000000000 ) ) ;
#99 = PERSON ( 'UNSPECIFIED', 'UNSPECIFIED', 'UNSPECIFIED', ('UNSPECIFIED'), ('UNSPECIFIED'), ('UNSPECIFIED') ) ;
#100 = CALENDAR_DATE ( 2017, 31, 1 ) ;
#101 = PRODUCT_DEFINITION_SHAPE ( 'NONE', 'NONE',  #2 ) ;
#102 = ORIENTED_EDGE ( 'NONE', *, *, #34, .F. ) ;
#103 = CC_DESIGN_PERSON_AND_ORGANIZATION_ASSIGNMENT ( #172, #139, ( #48 ) ) ;
#104 = EDGE_LOOP ( 'NONE', ( #102, #109, #61, #63 ) ) ;
#105 = DATE_AND_TIME ( #57, #112 ) ;
#106 = CARTESIAN_POINT ( 'NONE',  ( 0.0000000000000000000, 0.0000000000000000000, 0.0000000000000000000 ) ) ;
#107 = DIRECTION ( 'NONE',  ( 0.0000000000000000000, 0.0000000000000000000, 1.000000000000000000 ) ) ;
#108 = PERSON_AND_ORGANIZATION_ROLE ( 'design_supplier' ) ;
#109 = ORIENTED_EDGE ( 'NONE', *, *, #42, .T. ) ;
#110 = DIRECTION ( 'NONE',  ( 1.000000000000000000, 0.0000000000000000000, 0.0000000000000000000 ) ) ;
#111 = ORIENTED_EDGE ( 'NONE', *, *, #5, .F. ) ;
#112 = LOCAL_TIME ( 13, 45, 28.00000000000000000, #29 ) ;
#113 = FACE_OUTER_BOUND ( 'NONE', #7, .T. ) ;
#114 = DIRECTION ( 'NONE',  ( 1.000000000000000000, 0.0000000000000000000, 0.0000000000000000000 ) ) ;
#115 = AXIS2_PLACEMENT_3D ( 'NONE', #146, #58, #148 ) ;
#116 = APPROVAL_DATE_TIME ( #92, #158 ) ;
#117 = CLOSED_SHELL ( 'NONE', ( #118, #129, #14, #133 ) ) ;
#118 = ADVANCED_FACE ( 'NONE', ( #55 ), #88, .T. ) ;
#119 = VECTOR ( 'NONE', #135, 1000.000000000000000 ) ;
#120 = DIRECTION ( 'NONE',  ( 0.0000000000000000000, 0.0000000000000000000, 1.000000000000000000 ) ) ;
#121 = VERTEX_POINT ( 'NONE', #142 ) ;
#122 = CARTESIAN_POINT ( 'NONE',  ( 10.00000000000000000, 1.224646799147353300E-015, 2.000000000000000000 ) ) ;
#123 = APPLICATION_CONTEXT ( 'configuration controlled 3d designs of mechanical parts and assemblies' ) ;
#124 = DIRECTION ( 'NONE',  ( 1.000000000000000000, 0.0000000000000000000, -0.0000000000000000000 ) ) ;
#125 = APPROVAL_PERSON_ORGANIZATION ( #162, #39, #150 ) ;
#126 = CC_DESIGN_DATE_AND_TIME_ASSIGNMENT ( #147, #93, ( #2 ) ) ;
#127 = ORIENTED_EDGE ( 'NONE', *, *, #153, .T. ) ;
#128 = APPROVAL_DATE_TIME ( #105, #39 ) ;
#129 = ADVANCED_FACE ( 'NONE', ( #137 ), #136, .T. ) ;
#130 = CC_DESIGN_APPROVAL ( #39, ( #134 ) ) ;
#131 = ORIENTED_EDGE ( 'NONE', *, *, #157, .F. ) ;
#132 = APPROVAL_PERSON_ORGANIZATION ( #22, #56, #149 ) ;
#133 = ADVANCED_FACE ( 'NONE', ( #113 ), #170, .F. ) ;
#134 = SECURITY_CLASSIFICATION ( '', '', #20 ) ;
#135 = DIRECTION ( 'NONE',  ( -0.0000000000000000000, -0.0000000000000000000, -1.000000000000000000 ) ) ;
#136 = CYLINDRICAL_SURFACE ( 'NONE', #24, 10.00000000000000000 ) ;
#137 = FACE_OUTER_BOUND ( 'NONE', #69, .T. ) ;
#138 = PERSON_AND_ORGANIZATION_ROLE ( 'design_owner' ) ;
#139 = PERSON_AND_ORGANIZATION_ROLE ( 'creator' ) ;
#140 = PERSON_AND_ORGANIZATION_ROLE ( 'classification_officer' ) ;
#141 = CARTESIAN_POINT ( 'NONE',  ( -10.00000000000000000, 0.0000000000000000000, 2.000000000000000000 ) ) ;
#142 = CARTESIAN_POINT ( 'NONE',  ( 10.00000000000000000, 1.224646799147353300E-015, 0.0000000000000000000 ) ) ;
#143 = COORDINATED_UNIVERSAL_TIME_OFFSET ( 5, 0, .BEHIND. ) ;
#144 = LOCAL_TIME ( 13, 45, 28.00000000000000000, #44 ) ;
#145 = DESIGN_CONTEXT ( 'detailed design', #123, 'design' ) ;
#146 = CARTESIAN_POINT ( 'NONE',  ( 0.0000000000000000000, 0.0000000000000000000, 2.000000000000000000 ) ) ;
#147 = DATE_AND_TIME ( #64, #75 ) ;
#148 = DIRECTION ( 'NONE',  ( 1.000000000000000000, 0.0000000000000000000, 0.0000000000000000000 ) ) ;
#149 = APPROVAL_ROLE ( '' ) ;
#150 = APPROVAL_ROLE ( '' ) ;
#151 = DIRECTION ( 'NONE',  ( -0.0000000000000000000, -0.0000000000000000000, -1.000000000000000000 ) ) ;
#152 = CARTESIAN_POINT ( 'NONE',  ( 10.00000000000000000, 1.224646799147353300E-015, 2.000000000000000000 ) ) ;
#153 = EDGE_CURVE ( 'NONE', #17, #85, #163, .T. ) ;
#154 = VECTOR ( 'NONE', #166, 1000.000000000000000 ) ;
#155 = CIRCLE ( 'NONE', #115, 10.00000000000000000 ) ;
#156 = CARTESIAN_POINT ( 'NONE',  ( 0.0000000000000000000, 0.0000000000000000000, 0.0000000000000000000 ) ) ;
#157 = EDGE_CURVE ( 'NONE', #17, #43, #155, .T. ) ;
#158 = APPROVAL ( #167, 'UNSPECIFIED' ) ;
#159 = UNCERTAINTY_MEASURE_WITH_UNIT (LENGTH_MEASURE( 1.000000000000000100E-005 ), #31, 'distance_accuracy_value', 'NONE');
#160 = DIRECTION ( 'NONE',  ( 0.0000000000000000000, 0.0000000000000000000, 1.000000000000000000 ) ) ;
#161 = CIRCLE ( 'NONE', #84, 10.00000000000000000 ) ;
#162 = PERSON_AND_ORGANIZATION ( #99, #11 ) ;
#163 = LINE ( 'NONE', #51, #119 ) ;
#164 = MECHANICAL_CONTEXT ( 'NONE', #59, 'mechanical' ) ;
#165 = CARTESIAN_POINT ( 'NONE',  ( 0.0000000000000000000, 0.0000000000000000000, 0.0000000000000000000 ) ) ;
#166 = DIRECTION ( 'NONE',  ( -0.0000000000000000000, -0.0000000000000000000, -1.000000000000000000 ) ) ;
#167 = APPROVAL_STATUS ( 'not_yet_approved' ) ;
#168 = DATE_AND_TIME ( #68, #41 ) ;
#169 = COORDINATED_UNIVERSAL_TIME_OFFSET ( 5, 0, .BEHIND. ) ;
#170 = PLANE ( 'NONE',  #54 ) ;
#171 = DIRECTION ( 'NONE',  ( 1.000000000000000000, 0.0000000000000000000, -0.0000000000000000000 ) ) ;
#172 = PERSON_AND_ORGANIZATION ( #99, #11 ) ;
#173 = AXIS2_PLACEMENT_3D ( 'NONE', #165, #98, #1 ) ;
#174 = PERSON_AND_ORGANIZATION ( #99, #11 ) ;
#175 = PLANE ( 'NONE',  #33 ) ;
ENDSEC;
END-ISO-10303-21;
