ISO-10303-21;
HEADER;
FILE_DESCRIPTION (( 'STEP AP203' ),
    '1' );
FILE_NAME ('Web Model 68369_48899.step',
    '2017-03-01T19:00:06',
    ( '' ),
    ( '' ),
    'SwSTEP 2.0',
    'SolidWorks 2016',
    '' );
FILE_SCHEMA (( 'CONFIG_CONTROL_DESIGN' ));
ENDSEC;

DATA;
#1 = CC_DESIGN_DATE_AND_TIME_ASSIGNMENT ( #144, #97, ( #69 ) ) ;
#2 = CARTESIAN_POINT ( 'NONE',  ( -12.49999999999999800, 12.49999999999999600, 0.0000000000000000000 ) ) ;
#3 = CARTESIAN_POINT ( 'NONE',  ( 12.50000000000000500, -12.50000000000000000, 0.0000000000000000000 ) ) ;
#4 = CALENDAR_DATE ( 2017, 1, 3 ) ;
#5 = CARTESIAN_POINT ( 'NONE',  ( 12.50000000000000500, -12.50000000000000000, 3.000000000000000000 ) ) ;
#6 = COORDINATED_UNIVERSAL_TIME_OFFSET ( 5, 0, .BEHIND. ) ;
#7 = DIRECTION ( 'NONE',  ( -1.387778780781445400E-016, 1.000000000000000000, 0.0000000000000000000 ) ) ;
#8 = PERSON_AND_ORGANIZATION ( #12, #205 ) ;
#9 = CARTESIAN_POINT ( 'NONE',  ( -12.49999999999999500, -12.50000000000000400, 3.000000000000000000 ) ) ;
#10 = COORDINATED_UNIVERSAL_TIME_OFFSET ( 5, 0, .BEHIND. ) ;
#11 = APPROVAL_PERSON_ORGANIZATION ( #230, #54, #79 ) ;
#12 = PERSON ( 'UNSPECIFIED', 'UNSPECIFIED', 'UNSPECIFIED', ('UNSPECIFIED'), ('UNSPECIFIED'), ('UNSPECIFIED') ) ;
#13 = CARTESIAN_POINT ( 'NONE',  ( 12.50000000000000500, -12.50000000000000000, 3.000000000000000000 ) ) ;
#14 = SHAPE_DEFINITION_REPRESENTATION ( #81, #162 ) ;
#15 = VECTOR ( 'NONE', #178, 1000.000000000000000 ) ;
#16 = CARTESIAN_POINT ( 'NONE',  ( -12.49999999999999800, 12.49999999999999600, 3.000000000000000000 ) ) ;
#17 = CARTESIAN_POINT ( 'NONE',  ( 12.50000000000000500, -12.50000000000000000, 0.0000000000000000000 ) ) ;
#18 = EDGE_LOOP ( 'NONE', ( #57, #200, #134, #99 ) ) ;
#19 = VERTEX_POINT ( 'NONE', #61 ) ;
#20 = CC_DESIGN_APPROVAL ( #119, ( #185 ) ) ;
#21 = CC_DESIGN_PERSON_AND_ORGANIZATION_ASSIGNMENT ( #207, #67, ( #69 ) ) ;
#22 = DIRECTION ( 'NONE',  ( -4.163336342344337000E-016, 1.000000000000000000, -0.0000000000000000000 ) ) ;
#23 = LINE ( 'NONE', #191, #70 ) ;
#24 = ORIENTED_EDGE ( 'NONE', *, *, #89, .F. ) ;
#25 = VERTEX_POINT ( 'NONE', #17 ) ;
#26 = ORIENTED_EDGE ( 'NONE', *, *, #44, .T. ) ;
#27 = DIRECTION ( 'NONE',  ( -1.000000000000000000, 0.0000000000000000000, -0.0000000000000000000 ) ) ;
#28 = ADVANCED_FACE ( 'NONE', ( #139 ), #215, .F. ) ;
#29 = LOCAL_TIME ( 14, 0, 6.000000000000000000, #173 ) ;
#30 = ORIENTED_EDGE ( 'NONE', *, *, #89, .T. ) ;
#31 = VERTEX_POINT ( 'NONE', #193 ) ;
#32 = CARTESIAN_POINT ( 'NONE',  ( -12.49999999999999500, -12.50000000000000400, 3.000000000000000000 ) ) ;
#33 = CC_DESIGN_APPROVAL ( #54, ( #69 ) ) ;
#34 = DIRECTION ( 'NONE',  ( 1.000000000000000000, 1.387778780781445700E-016, -0.0000000000000000000 ) ) ;
#35 = EDGE_CURVE ( 'NONE', #25, #127, #145, .T. ) ;
#36 = DIRECTION ( 'NONE',  ( 1.000000000000000000, 1.387778780781445700E-016, -0.0000000000000000000 ) ) ;
#37 = PRODUCT_RELATED_PRODUCT_CATEGORY ( 'detail', '', ( #71 ) ) ;
#38 = MECHANICAL_CONTEXT ( 'NONE', #161, 'mechanical' ) ;
#39 = ORIENTED_EDGE ( 'NONE', *, *, #204, .F. ) ;
#40 = APPROVAL ( #166, 'UNSPECIFIED' ) ;
#41 = VECTOR ( 'NONE', #34, 1000.000000000000000 ) ;
#42 = PERSON_AND_ORGANIZATION ( #12, #205 ) ;
#43 = PERSON_AND_ORGANIZATION_ROLE ( 'creator' ) ;
#44 = EDGE_CURVE ( 'NONE', #129, #19, #150, .T. ) ;
#45 = CARTESIAN_POINT ( 'NONE',  ( 12.49999999999999500, 12.50000000000000000, 3.000000000000000000 ) ) ;
#46 = FACE_OUTER_BOUND ( 'NONE', #142, .T. ) ;
#47 = EDGE_LOOP ( 'NONE', ( #198, #149, #24, #187 ) ) ;
#48 = ORIENTED_EDGE ( 'NONE', *, *, #103, .T. ) ;
#49 = DIRECTION ( 'NONE',  ( -0.0000000000000000000, -0.0000000000000000000, -1.000000000000000000 ) ) ;
#50 = AXIS2_PLACEMENT_3D ( 'NONE', #5, #7, #59 ) ;
#51 = APPROVAL_PERSON_ORGANIZATION ( #42, #119, #118 ) ;
#52 = EDGE_CURVE ( 'NONE', #127, #111, #23, .T. ) ;
#53 = DIRECTION ( 'NONE',  ( -1.000000000000000000, -1.387778780781445900E-016, 0.0000000000000000000 ) ) ;
#54 = APPROVAL ( #148, 'UNSPECIFIED' ) ;
#55 = UNCERTAINTY_MEASURE_WITH_UNIT (LENGTH_MEASURE( 1.000000000000000100E-005 ), #86, 'distance_accuracy_value', 'NONE');
#56 = ADVANCED_FACE ( 'NONE', ( #115 ), #202, .T. ) ;
#57 = ORIENTED_EDGE ( 'NONE', *, *, #147, .F. ) ;
#58 = LINE ( 'NONE', #87, #214 ) ;
#59 = DIRECTION ( 'NONE',  ( -1.000000000000000000, -1.387778780781445400E-016, 0.0000000000000000000 ) ) ;
#60 = DIRECTION ( 'NONE',  ( 1.000000000000000000, 1.387778780781445900E-016, 0.0000000000000000000 ) ) ;
#61 = CARTESIAN_POINT ( 'NONE',  ( 12.49999999999999500, 12.50000000000000000, 3.000000000000000000 ) ) ;
#62 = EDGE_CURVE ( 'NONE', #31, #111, #168, .T. ) ;
#63 = CALENDAR_DATE ( 2017, 1, 3 ) ;
#64 = APPROVAL_DATE_TIME ( #122, #40 ) ;
#65 = LINE ( 'NONE', #143, #163 ) ;
#66 = CALENDAR_DATE ( 2017, 1, 3 ) ;
#67 = PERSON_AND_ORGANIZATION_ROLE ( 'creator' ) ;
#68 = ORIENTED_EDGE ( 'NONE', *, *, #147, .T. ) ;
#69 = PRODUCT_DEFINITION ( 'UNKNOWN', '', #176, #218 ) ;
#70 = VECTOR ( 'NONE', #53, 1000.000000000000000 ) ;
#71 = PRODUCT ( 'Web Model 68369_48899', 'Web Model 68369_48899', '', ( #38 ) ) ;
#72 = CC_DESIGN_DATE_AND_TIME_ASSIGNMENT ( #165, #75, ( #185 ) ) ;
#73 = CC_DESIGN_PERSON_AND_ORGANIZATION_ASSIGNMENT ( #113, #154, ( #71 ) ) ;
#74 = DIRECTION ( 'NONE',  ( 0.0000000000000000000, 0.0000000000000000000, 1.000000000000000000 ) ) ;
#75 = DATE_TIME_ROLE ( 'classification_date' ) ;
#76 = PERSON_AND_ORGANIZATION_ROLE ( 'classification_officer' ) ;
#77 = AXIS2_PLACEMENT_3D ( 'NONE', #91, #74, #117 ) ;
#78 = ORIENTED_EDGE ( 'NONE', *, *, #128, .F. ) ;
#79 = APPROVAL_ROLE ( '' ) ;
#80 = VECTOR ( 'NONE', #22, 1000.000000000000000 ) ;
#81 = PRODUCT_DEFINITION_SHAPE ( 'NONE', 'NONE',  #69 ) ;
#82 = DIRECTION ( 'NONE',  ( -0.0000000000000000000, -0.0000000000000000000, -1.000000000000000000 ) ) ;
#83 = LINE ( 'NONE', #16, #167 ) ;
#84 = VECTOR ( 'NONE', #146, 1000.000000000000000 ) ;
#85 = CC_DESIGN_PERSON_AND_ORGANIZATION_ASSIGNMENT ( #124, #76, ( #185 ) ) ;
#86 =( LENGTH_UNIT ( ) NAMED_UNIT ( * ) SI_UNIT ( .MILLI., .METRE. ) );
#87 = CARTESIAN_POINT ( 'NONE',  ( 12.50000000000000500, -12.50000000000000000, 3.000000000000000000 ) ) ;
#88 = DIRECTION ( 'NONE',  ( 1.387778780781445700E-016, -1.000000000000000000, 0.0000000000000000000 ) ) ;
#89 = EDGE_CURVE ( 'NONE', #19, #31, #206, .T. ) ;
#90 = DIRECTION ( 'NONE',  ( 1.387778780781445700E-016, -1.000000000000000000, 0.0000000000000000000 ) ) ;
#91 = CARTESIAN_POINT ( 'NONE',  ( 0.0000000000000000000, 0.0000000000000000000, 0.0000000000000000000 ) ) ;
#92 = PLANE ( 'NONE',  #197 ) ;
#93 =( NAMED_UNIT ( * ) SI_UNIT ( $, .STERADIAN. ) SOLID_ANGLE_UNIT ( ) );
#94 = CC_DESIGN_APPROVAL ( #40, ( #176 ) ) ;
#95 = PERSON_AND_ORGANIZATION_ROLE ( 'design_supplier' ) ;
#96 = FACE_OUTER_BOUND ( 'NONE', #47, .T. ) ;
#97 = DATE_TIME_ROLE ( 'creation_date' ) ;
#98 =( NAMED_UNIT ( * ) PLANE_ANGLE_UNIT ( ) SI_UNIT ( $, .RADIAN. ) );
#99 = ORIENTED_EDGE ( 'NONE', *, *, #224, .F. ) ;
#100 = ORIENTED_EDGE ( 'NONE', *, *, #35, .T. ) ;
#101 = SECURITY_CLASSIFICATION_LEVEL ( 'unclassified' ) ;
#102 = DIRECTION ( 'NONE',  ( -1.000000000000000000, 0.0000000000000000000, -0.0000000000000000000 ) ) ;
#103 = EDGE_CURVE ( 'NONE', #31, #158, #83, .T. ) ;
#104 = COORDINATED_UNIVERSAL_TIME_OFFSET ( 5, 0, .BEHIND. ) ;
#105 = ADVANCED_FACE ( 'NONE', ( #227 ), #201, .F. ) ;
#106 = EDGE_LOOP ( 'NONE', ( #48, #120, #26, #30 ) ) ;
#107 = ORIENTED_EDGE ( 'NONE', *, *, #235, .F. ) ;
#108 = CARTESIAN_POINT ( 'NONE',  ( -12.49999999999999800, 12.49999999999999600, 3.000000000000000000 ) ) ;
#109 = CALENDAR_DATE ( 2017, 1, 3 ) ;
#110 = LINE ( 'NONE', #2, #216 ) ;
#111 = VERTEX_POINT ( 'NONE', #222 ) ;
#112 = CLOSED_SHELL ( 'NONE', ( #172, #28, #105, #234, #233, #56 ) ) ;
#113 = PERSON_AND_ORGANIZATION ( #12, #205 ) ;
#114 = AXIS2_PLACEMENT_3D ( 'NONE', #189, #182, #27 ) ;
#115 = FACE_OUTER_BOUND ( 'NONE', #18, .T. ) ;
#116 = EDGE_CURVE ( 'NONE', #19, #127, #179, .T. ) ;
#117 = DIRECTION ( 'NONE',  ( 1.000000000000000000, 0.0000000000000000000, 0.0000000000000000000 ) ) ;
#118 = APPROVAL_ROLE ( '' ) ;
#119 = APPROVAL ( #152, 'UNSPECIFIED' ) ;
#120 = ORIENTED_EDGE ( 'NONE', *, *, #128, .T. ) ;
#121 = DIRECTION ( 'NONE',  ( 0.0000000000000000000, 0.0000000000000000000, -1.000000000000000000 ) ) ;
#122 = DATE_AND_TIME ( #109, #159 ) ;
#123 = CARTESIAN_POINT ( 'NONE',  ( 12.49999999999999500, 12.50000000000000000, 3.000000000000000000 ) ) ;
#124 = PERSON_AND_ORGANIZATION ( #12, #205 ) ;
#125 = AXIS2_PLACEMENT_3D ( 'NONE', #164, #211, #60 ) ;
#126 = APPLICATION_PROTOCOL_DEFINITION ( 'international standard', 'config_control_design', 1994, #161 ) ;
#127 = VERTEX_POINT ( 'NONE', #174 ) ;
#128 = EDGE_CURVE ( 'NONE', #158, #129, #192, .T. ) ;
#129 = VERTEX_POINT ( 'NONE', #160 ) ;
#130 = EDGE_LOOP ( 'NONE', ( #100, #203, #231, #157 ) ) ;
#131 = LOCAL_TIME ( 14, 0, 6.000000000000000000, #104 ) ;
#132 = VERTEX_POINT ( 'NONE', #221 ) ;
#133 = VECTOR ( 'NONE', #36, 1000.000000000000000 ) ;
#134 = ORIENTED_EDGE ( 'NONE', *, *, #35, .F. ) ;
#135 = DATE_AND_TIME ( #136, #190 ) ;
#136 = CALENDAR_DATE ( 2017, 1, 3 ) ;
#137 =( GEOMETRIC_REPRESENTATION_CONTEXT ( 3 ) GLOBAL_UNCERTAINTY_ASSIGNED_CONTEXT ( ( #55 ) ) GLOBAL_UNIT_ASSIGNED_CONTEXT ( ( #86, #98, #93 ) ) REPRESENTATION_CONTEXT ( 'NONE', 'WORKASPACE' ) );
#138 = DIRECTION ( 'NONE',  ( -1.387778780781445400E-016, 1.000000000000000000, 0.0000000000000000000 ) ) ;
#139 = FACE_OUTER_BOUND ( 'NONE', #175, .T. ) ;
#140 = ORIENTED_EDGE ( 'NONE', *, *, #224, .T. ) ;
#141 = DIRECTION ( 'NONE',  ( 1.000000000000000000, 1.387778780781445400E-016, -0.0000000000000000000 ) ) ;
#142 = EDGE_LOOP ( 'NONE', ( #68, #39, #183, #180 ) ) ;
#143 = CARTESIAN_POINT ( 'NONE',  ( -12.49999999999999500, -12.50000000000000400, 3.000000000000000000 ) ) ;
#144 = DATE_AND_TIME ( #66, #131 ) ;
#145 = LINE ( 'NONE', #186, #80 ) ;
#146 = DIRECTION ( 'NONE',  ( -1.000000000000000000, -1.387778780781445900E-016, 0.0000000000000000000 ) ) ;
#147 = EDGE_CURVE ( 'NONE', #111, #132, #110, .T. ) ;
#148 = APPROVAL_STATUS ( 'not_yet_approved' ) ;
#149 = ORIENTED_EDGE ( 'NONE', *, *, #62, .F. ) ;
#150 = LINE ( 'NONE', #123, #15 ) ;
#151 = AXIS2_PLACEMENT_3D ( 'NONE', #32, #121, #102 ) ;
#152 = APPROVAL_STATUS ( 'not_yet_approved' ) ;
#153 = DATE_AND_TIME ( #63, #29 ) ;
#154 = PERSON_AND_ORGANIZATION_ROLE ( 'design_owner' ) ;
#155 = LINE ( 'NONE', #3, #133 ) ;
#156 = CC_DESIGN_SECURITY_CLASSIFICATION ( #185, ( #176 ) ) ;
#157 = ORIENTED_EDGE ( 'NONE', *, *, #235, .T. ) ;
#158 = VERTEX_POINT ( 'NONE', #9 ) ;
#159 = LOCAL_TIME ( 14, 0, 6.000000000000000000, #181 ) ;
#160 = CARTESIAN_POINT ( 'NONE',  ( 12.50000000000000500, -12.50000000000000000, 3.000000000000000000 ) ) ;
#161 = APPLICATION_CONTEXT ( 'configuration controlled 3d designs of mechanical parts and assemblies' ) ;
#162 = ADVANCED_BREP_SHAPE_REPRESENTATION ( 'Web Model 68369_48899', ( #177, #77 ), #137 ) ;
#163 = VECTOR ( 'NONE', #82, 1000.000000000000000 ) ;
#164 = CARTESIAN_POINT ( 'NONE',  ( 12.49999999999999500, 12.50000000000000000, 3.000000000000000000 ) ) ;
#165 = DATE_AND_TIME ( #4, #212 ) ;
#166 = APPROVAL_STATUS ( 'not_yet_approved' ) ;
#167 = VECTOR ( 'NONE', #88, 1000.000000000000000 ) ;
#168 = LINE ( 'NONE', #194, #170 ) ;
#169 = CC_DESIGN_PERSON_AND_ORGANIZATION_ASSIGNMENT ( #209, #43, ( #176 ) ) ;
#170 = VECTOR ( 'NONE', #184, 1000.000000000000000 ) ;
#171 = APPROVAL_ROLE ( '' ) ;
#172 = ADVANCED_FACE ( 'NONE', ( #46 ), #92, .F. ) ;
#173 = COORDINATED_UNIVERSAL_TIME_OFFSET ( 5, 0, .BEHIND. ) ;
#174 = CARTESIAN_POINT ( 'NONE',  ( 12.49999999999999500, 12.50000000000000000, 0.0000000000000000000 ) ) ;
#175 = EDGE_LOOP ( 'NONE', ( #140, #107, #78, #228 ) ) ;
#176 = PRODUCT_DEFINITION_FORMATION_WITH_SPECIFIED_SOURCE ( 'ANY', '', #71, .NOT_KNOWN. ) ;
#177 = MANIFOLD_SOLID_BREP ( 'Extrude1', #112 ) ;
#178 = DIRECTION ( 'NONE',  ( -4.163336342344337000E-016, 1.000000000000000000, -0.0000000000000000000 ) ) ;
#179 = LINE ( 'NONE', #229, #195 ) ;
#180 = ORIENTED_EDGE ( 'NONE', *, *, #62, .T. ) ;
#181 = COORDINATED_UNIVERSAL_TIME_OFFSET ( 5, 0, .BEHIND. ) ;
#182 = DIRECTION ( 'NONE',  ( 0.0000000000000000000, 0.0000000000000000000, -1.000000000000000000 ) ) ;
#183 = ORIENTED_EDGE ( 'NONE', *, *, #103, .F. ) ;
#184 = DIRECTION ( 'NONE',  ( -0.0000000000000000000, -0.0000000000000000000, -1.000000000000000000 ) ) ;
#185 = SECURITY_CLASSIFICATION ( '', '', #101 ) ;
#186 = CARTESIAN_POINT ( 'NONE',  ( 12.49999999999999500, 12.50000000000000000, 0.0000000000000000000 ) ) ;
#187 = ORIENTED_EDGE ( 'NONE', *, *, #116, .T. ) ;
#188 = APPROVAL_PERSON_ORGANIZATION ( #208, #40, #171 ) ;
#189 = CARTESIAN_POINT ( 'NONE',  ( -12.49999999999999500, -12.50000000000000400, 0.0000000000000000000 ) ) ;
#190 = LOCAL_TIME ( 14, 0, 6.000000000000000000, #10 ) ;
#191 = CARTESIAN_POINT ( 'NONE',  ( 12.49999999999999500, 12.50000000000000000, 0.0000000000000000000 ) ) ;
#192 = LINE ( 'NONE', #13, #41 ) ;
#193 = CARTESIAN_POINT ( 'NONE',  ( -12.49999999999999800, 12.49999999999999600, 3.000000000000000000 ) ) ;
#194 = CARTESIAN_POINT ( 'NONE',  ( -12.49999999999999800, 12.49999999999999600, 3.000000000000000000 ) ) ;
#195 = VECTOR ( 'NONE', #219, 1000.000000000000000 ) ;
#196 = PLANE ( 'NONE',  #125 ) ;
#197 = AXIS2_PLACEMENT_3D ( 'NONE', #108, #141, #138 ) ;
#198 = ORIENTED_EDGE ( 'NONE', *, *, #52, .T. ) ;
#199 = APPROVAL_DATE_TIME ( #153, #54 ) ;
#200 = ORIENTED_EDGE ( 'NONE', *, *, #52, .F. ) ;
#201 = PLANE ( 'NONE',  #220 ) ;
#202 = PLANE ( 'NONE',  #114 ) ;
#203 = ORIENTED_EDGE ( 'NONE', *, *, #116, .F. ) ;
#204 = EDGE_CURVE ( 'NONE', #158, #132, #65, .T. ) ;
#205 = ORGANIZATION ( 'UNSPECIFIED', 'UNSPECIFIED', '' ) ;
#206 = LINE ( 'NONE', #217, #84 ) ;
#207 = PERSON_AND_ORGANIZATION ( #12, #205 ) ;
#208 = PERSON_AND_ORGANIZATION ( #12, #205 ) ;
#209 = PERSON_AND_ORGANIZATION ( #12, #205 ) ;
#210 = APPLICATION_CONTEXT ( 'configuration controlled 3d designs of mechanical parts and assemblies' ) ;
#211 = DIRECTION ( 'NONE',  ( 1.387778780781445900E-016, -1.000000000000000000, 0.0000000000000000000 ) ) ;
#212 = LOCAL_TIME ( 14, 0, 6.000000000000000000, #6 ) ;
#213 = APPLICATION_PROTOCOL_DEFINITION ( 'international standard', 'config_control_design', 1994, #210 ) ;
#214 = VECTOR ( 'NONE', #49, 1000.000000000000000 ) ;
#215 = PLANE ( 'NONE',  #50 ) ;
#216 = VECTOR ( 'NONE', #90, 1000.000000000000000 ) ;
#217 = CARTESIAN_POINT ( 'NONE',  ( 12.49999999999999500, 12.50000000000000000, 3.000000000000000000 ) ) ;
#218 = DESIGN_CONTEXT ( 'detailed design', #210, 'design' ) ;
#219 = DIRECTION ( 'NONE',  ( -0.0000000000000000000, -0.0000000000000000000, -1.000000000000000000 ) ) ;
#220 = AXIS2_PLACEMENT_3D ( 'NONE', #45, #225, #236 ) ;
#221 = CARTESIAN_POINT ( 'NONE',  ( -12.49999999999999500, -12.50000000000000400, 0.0000000000000000000 ) ) ;
#222 = CARTESIAN_POINT ( 'NONE',  ( -12.49999999999999800, 12.49999999999999600, 0.0000000000000000000 ) ) ;
#223 = CC_DESIGN_PERSON_AND_ORGANIZATION_ASSIGNMENT ( #8, #95, ( #176 ) ) ;
#224 = EDGE_CURVE ( 'NONE', #132, #25, #155, .T. ) ;
#225 = DIRECTION ( 'NONE',  ( -1.000000000000000000, -4.163336342344336500E-016, 0.0000000000000000000 ) ) ;
#226 = FACE_OUTER_BOUND ( 'NONE', #106, .T. ) ;
#227 = FACE_OUTER_BOUND ( 'NONE', #130, .T. ) ;
#228 = ORIENTED_EDGE ( 'NONE', *, *, #204, .T. ) ;
#229 = CARTESIAN_POINT ( 'NONE',  ( 12.49999999999999500, 12.50000000000000000, 3.000000000000000000 ) ) ;
#230 = PERSON_AND_ORGANIZATION ( #12, #205 ) ;
#231 = ORIENTED_EDGE ( 'NONE', *, *, #44, .F. ) ;
#232 = APPROVAL_DATE_TIME ( #135, #119 ) ;
#233 = ADVANCED_FACE ( 'NONE', ( #226 ), #237, .F. ) ;
#234 = ADVANCED_FACE ( 'NONE', ( #96 ), #196, .F. ) ;
#235 = EDGE_CURVE ( 'NONE', #129, #25, #58, .T. ) ;
#236 = DIRECTION ( 'NONE',  ( 4.163336342344336500E-016, -1.000000000000000000, 0.0000000000000000000 ) ) ;
#237 = PLANE ( 'NONE',  #151 ) ;
ENDSEC;
END-ISO-10303-21;
