ISO-10303-21;
HEADER;
FILE_DESCRIPTION (( 'STEP AP203' ),
    '1' );
FILE_NAME ('Web Model 43817_46607.step',
    '2017-04-10T17:30:49',
    ( '' ),
    ( '' ),
    'SwSTEP 2.0',
    'SolidWorks 2016',
    '' );
FILE_SCHEMA (( 'CONFIG_CONTROL_DESIGN' ));
ENDSEC;

DATA;
#1 = VERTEX_POINT ( 'NONE', #148 ) ;
#2 = COORDINATED_UNIVERSAL_TIME_OFFSET ( 5, 0, .BEHIND. ) ;
#3 = CALENDAR_DATE ( 2017, 10, 4 ) ;
#4 = LOCAL_TIME ( 13, 30, 49.00000000000000000, #126 ) ;
#5 = SECURITY_CLASSIFICATION ( '', '', #33 ) ;
#6 = ADVANCED_BREP_SHAPE_REPRESENTATION ( 'Web Model 43817_46607', ( #169, #79 ), #31 ) ;
#7 = PERSON_AND_ORGANIZATION_ROLE ( 'design_owner' ) ;
#8 = CARTESIAN_POINT ( 'NONE',  ( -12.50000000000000000, 1.530808498934191500E-015, -0.5000000000000000000 ) ) ;
#9 =( NAMED_UNIT ( * ) PLANE_ANGLE_UNIT ( ) SI_UNIT ( $, .RADIAN. ) );
#10 = AXIS2_PLACEMENT_3D ( 'NONE', #133, #29, #86 ) ;
#11 = CARTESIAN_POINT ( 'NONE',  ( 0.0000000000000000000, 0.0000000000000000000, 0.5000000000000000000 ) ) ;
#12 =( LENGTH_UNIT ( ) NAMED_UNIT ( * ) SI_UNIT ( .MILLI., .METRE. ) );
#13 = DIRECTION ( 'NONE',  ( 1.000000000000000000, 0.0000000000000000000, 0.0000000000000000000 ) ) ;
#14 = APPLICATION_CONTEXT ( 'configuration controlled 3d designs of mechanical parts and assemblies' ) ;
#15 = DESIGN_CONTEXT ( 'detailed design', #81, 'design' ) ;
#16 = CARTESIAN_POINT ( 'NONE',  ( 0.0000000000000000000, 0.0000000000000000000, -0.5000000000000000000 ) ) ;
#17 = CARTESIAN_POINT ( 'NONE',  ( 12.50000000000000000, 0.0000000000000000000, 0.5000000000000000000 ) ) ;
#18 = DIRECTION ( 'NONE',  ( 0.0000000000000000000, -0.0000000000000000000, 1.000000000000000000 ) ) ;
#19 = CC_DESIGN_PERSON_AND_ORGANIZATION_ASSIGNMENT ( #20, #154, ( #5 ) ) ;
#20 = PERSON_AND_ORGANIZATION ( #140, #61 ) ;
#21 = CARTESIAN_POINT ( 'NONE',  ( -12.50000000000000000, 1.530808498934191500E-015, 0.5000000000000000000 ) ) ;
#22 = AXIS2_PLACEMENT_3D ( 'NONE', #139, #57, #174 ) ;
#23 = DIRECTION ( 'NONE',  ( 1.000000000000000000, 0.0000000000000000000, 0.0000000000000000000 ) ) ;
#24 = PERSON_AND_ORGANIZATION ( #140, #61 ) ;
#25 = DIRECTION ( 'NONE',  ( -0.0000000000000000000, -0.0000000000000000000, 1.000000000000000000 ) ) ;
#26 = EDGE_CURVE ( 'NONE', #117, #1, #137, .T. ) ;
#27 = CC_DESIGN_DATE_AND_TIME_ASSIGNMENT ( #67, #121, ( #5 ) ) ;
#28 = MECHANICAL_CONTEXT ( 'NONE', #14, 'mechanical' ) ;
#29 = DIRECTION ( 'NONE',  ( -0.0000000000000000000, -0.0000000000000000000, 1.000000000000000000 ) ) ;
#30 = DIRECTION ( 'NONE',  ( 1.000000000000000000, 0.0000000000000000000, 0.0000000000000000000 ) ) ;
#31 =( GEOMETRIC_REPRESENTATION_CONTEXT ( 3 ) GLOBAL_UNCERTAINTY_ASSIGNED_CONTEXT ( ( #102 ) ) GLOBAL_UNIT_ASSIGNED_CONTEXT ( ( #12, #9, #35 ) ) REPRESENTATION_CONTEXT ( 'NONE', 'WORKASPACE' ) );
#32 = DIRECTION ( 'NONE',  ( 1.000000000000000000, 0.0000000000000000000, 0.0000000000000000000 ) ) ;
#33 = SECURITY_CLASSIFICATION_LEVEL ( 'unclassified' ) ;
#34 = DATE_AND_TIME ( #46, #84 ) ;
#35 =( NAMED_UNIT ( * ) SI_UNIT ( $, .STERADIAN. ) SOLID_ANGLE_UNIT ( ) );
#36 = APPROVAL_STATUS ( 'not_yet_approved' ) ;
#37 = COORDINATED_UNIVERSAL_TIME_OFFSET ( 5, 0, .BEHIND. ) ;
#38 = APPROVAL ( #161, 'UNSPECIFIED' ) ;
#39 = CARTESIAN_POINT ( 'NONE',  ( 0.0000000000000000000, 0.0000000000000000000, -0.5000000000000000000 ) ) ;
#40 = COORDINATED_UNIVERSAL_TIME_OFFSET ( 5, 0, .BEHIND. ) ;
#41 = EDGE_LOOP ( 'NONE', ( #62, #71 ) ) ;
#42 = DIRECTION ( 'NONE',  ( -0.0000000000000000000, -0.0000000000000000000, 1.000000000000000000 ) ) ;
#43 = AXIS2_PLACEMENT_3D ( 'NONE', #39, #18, #32 ) ;
#44 = CARTESIAN_POINT ( 'NONE',  ( 0.0000000000000000000, 0.0000000000000000000, 0.0000000000000000000 ) ) ;
#45 = PERSON_AND_ORGANIZATION ( #140, #61 ) ;
#46 = CALENDAR_DATE ( 2017, 10, 4 ) ;
#47 = CC_DESIGN_APPROVAL ( #38, ( #5 ) ) ;
#48 = PERSON_AND_ORGANIZATION ( #140, #61 ) ;
#49 = DIRECTION ( 'NONE',  ( 1.000000000000000000, 0.0000000000000000000, 0.0000000000000000000 ) ) ;
#50 = ADVANCED_FACE ( 'NONE', ( #73 ), #149, .T. ) ;
#51 = CALENDAR_DATE ( 2017, 10, 4 ) ;
#52 = CIRCLE ( 'NONE', #162, 12.50000000000000000 ) ;
#53 = DIRECTION ( 'NONE',  ( -0.0000000000000000000, -0.0000000000000000000, 1.000000000000000000 ) ) ;
#54 = LOCAL_TIME ( 13, 30, 49.00000000000000000, #2 ) ;
#55 = CC_DESIGN_SECURITY_CLASSIFICATION ( #5, ( #138 ) ) ;
#56 = ORIENTED_EDGE ( 'NONE', *, *, #88, .T. ) ;
#57 = DIRECTION ( 'NONE',  ( 0.0000000000000000000, 0.0000000000000000000, -1.000000000000000000 ) ) ;
#58 = COORDINATED_UNIVERSAL_TIME_OFFSET ( 5, 0, .BEHIND. ) ;
#59 = CARTESIAN_POINT ( 'NONE',  ( 12.50000000000000000, 0.0000000000000000000, 0.5000000000000000000 ) ) ;
#60 = DIRECTION ( 'NONE',  ( 0.0000000000000000000, 0.0000000000000000000, 1.000000000000000000 ) ) ;
#61 = ORGANIZATION ( 'UNSPECIFIED', 'UNSPECIFIED', '' ) ;
#62 = ORIENTED_EDGE ( 'NONE', *, *, #114, .F. ) ;
#63 = PLANE ( 'NONE',  #22 ) ;
#64 = DIRECTION ( 'NONE',  ( -0.0000000000000000000, -0.0000000000000000000, 1.000000000000000000 ) ) ;
#65 = PERSON_AND_ORGANIZATION ( #140, #61 ) ;
#66 = PRODUCT_RELATED_PRODUCT_CATEGORY ( 'detail', '', ( #164 ) ) ;
#67 = DATE_AND_TIME ( #92, #141 ) ;
#68 = DIRECTION ( 'NONE',  ( -0.0000000000000000000, -0.0000000000000000000, 1.000000000000000000 ) ) ;
#69 = DATE_TIME_ROLE ( 'creation_date' ) ;
#70 = ORIENTED_EDGE ( 'NONE', *, *, #26, .F. ) ;
#71 = ORIENTED_EDGE ( 'NONE', *, *, #109, .F. ) ;
#72 = CYLINDRICAL_SURFACE ( 'NONE', #10, 12.50000000000000000 ) ;
#73 = FACE_OUTER_BOUND ( 'NONE', #135, .T. ) ;
#74 = APPROVAL_PERSON_ORGANIZATION ( #24, #147, #130 ) ;
#75 = PERSON_AND_ORGANIZATION_ROLE ( 'creator' ) ;
#76 = PLANE ( 'NONE',  #43 ) ;
#77 = APPROVAL_DATE_TIME ( #34, #105 ) ;
#78 = ORIENTED_EDGE ( 'NONE', *, *, #116, .T. ) ;
#79 = AXIS2_PLACEMENT_3D ( 'NONE', #44, #60, #106 ) ;
#80 = CARTESIAN_POINT ( 'NONE',  ( 0.0000000000000000000, 0.0000000000000000000, -0.5000000000000000000 ) ) ;
#81 = APPLICATION_CONTEXT ( 'configuration controlled 3d designs of mechanical parts and assemblies' ) ;
#82 = PERSON_AND_ORGANIZATION ( #140, #61 ) ;
#83 = VECTOR ( 'NONE', #155, 1000.000000000000000 ) ;
#84 = LOCAL_TIME ( 13, 30, 49.00000000000000000, #37 ) ;
#85 = CC_DESIGN_PERSON_AND_ORGANIZATION_ASSIGNMENT ( #45, #7, ( #164 ) ) ;
#86 = DIRECTION ( 'NONE',  ( 1.000000000000000000, 0.0000000000000000000, 0.0000000000000000000 ) ) ;
#87 = VECTOR ( 'NONE', #25, 1000.000000000000000 ) ;
#88 = EDGE_CURVE ( 'NONE', #156, #1, #152, .T. ) ;
#89 = APPROVAL_DATE_TIME ( #101, #38 ) ;
#90 = APPROVAL_DATE_TIME ( #119, #147 ) ;
#91 = FACE_OUTER_BOUND ( 'NONE', #145, .T. ) ;
#92 = CALENDAR_DATE ( 2017, 10, 4 ) ;
#93 = PRODUCT_DEFINITION ( 'UNKNOWN', '', #138, #15 ) ;
#94 = ORIENTED_EDGE ( 'NONE', *, *, #116, .F. ) ;
#95 = EDGE_CURVE ( 'NONE', #1, #156, #163, .T. ) ;
#96 = APPLICATION_PROTOCOL_DEFINITION ( 'international standard', 'config_control_design', 1994, #14 ) ;
#97 = DIRECTION ( 'NONE',  ( -0.0000000000000000000, -0.0000000000000000000, 1.000000000000000000 ) ) ;
#98 = ORIENTED_EDGE ( 'NONE', *, *, #95, .T. ) ;
#99 = ORIENTED_EDGE ( 'NONE', *, *, #88, .F. ) ;
#100 = CARTESIAN_POINT ( 'NONE',  ( 0.0000000000000000000, 0.0000000000000000000, 0.5000000000000000000 ) ) ;
#101 = DATE_AND_TIME ( #3, #54 ) ;
#102 = UNCERTAINTY_MEASURE_WITH_UNIT (LENGTH_MEASURE( 1.000000000000000100E-005 ), #12, 'distance_accuracy_value', 'NONE');
#103 = CARTESIAN_POINT ( 'NONE',  ( 0.0000000000000000000, 0.0000000000000000000, 0.5000000000000000000 ) ) ;
#104 = APPLICATION_PROTOCOL_DEFINITION ( 'international standard', 'config_control_design', 1994, #81 ) ;
#105 = APPROVAL ( #36, 'UNSPECIFIED' ) ;
#106 = DIRECTION ( 'NONE',  ( 1.000000000000000000, 0.0000000000000000000, 0.0000000000000000000 ) ) ;
#107 = FACE_OUTER_BOUND ( 'NONE', #120, .T. ) ;
#108 = CIRCLE ( 'NONE', #151, 12.50000000000000000 ) ;
#109 = EDGE_CURVE ( 'NONE', #117, #136, #108, .T. ) ;
#110 = DIRECTION ( 'NONE',  ( 1.000000000000000000, 0.0000000000000000000, 0.0000000000000000000 ) ) ;
#111 = ORIENTED_EDGE ( 'NONE', *, *, #26, .T. ) ;
#112 = CC_DESIGN_APPROVAL ( #105, ( #93 ) ) ;
#113 = ORIENTED_EDGE ( 'NONE', *, *, #109, .T. ) ;
#114 = EDGE_CURVE ( 'NONE', #136, #117, #52, .T. ) ;
#115 = ADVANCED_FACE ( 'NONE', ( #107 ), #72, .T. ) ;
#116 = EDGE_CURVE ( 'NONE', #136, #156, #146, .T. ) ;
#117 = VERTEX_POINT ( 'NONE', #8 ) ;
#118 = CC_DESIGN_PERSON_AND_ORGANIZATION_ASSIGNMENT ( #128, #167, ( #93 ) ) ;
#119 = DATE_AND_TIME ( #51, #4 ) ;
#120 = EDGE_LOOP ( 'NONE', ( #70, #113, #78, #168 ) ) ;
#121 = DATE_TIME_ROLE ( 'classification_date' ) ;
#122 = APPROVAL_ROLE ( '' ) ;
#123 = AXIS2_PLACEMENT_3D ( 'NONE', #100, #68, #13 ) ;
#124 = FACE_OUTER_BOUND ( 'NONE', #41, .T. ) ;
#125 = PERSON_AND_ORGANIZATION_ROLE ( 'design_supplier' ) ;
#126 = COORDINATED_UNIVERSAL_TIME_OFFSET ( 5, 0, .BEHIND. ) ;
#127 = CC_DESIGN_DATE_AND_TIME_ASSIGNMENT ( #143, #69, ( #93 ) ) ;
#128 = PERSON_AND_ORGANIZATION ( #140, #61 ) ;
#129 = ADVANCED_FACE ( 'NONE', ( #91 ), #63, .F. ) ;
#130 = APPROVAL_ROLE ( '' ) ;
#131 = AXIS2_PLACEMENT_3D ( 'NONE', #103, #42, #30 ) ;
#132 = PERSON_AND_ORGANIZATION ( #140, #61 ) ;
#133 = CARTESIAN_POINT ( 'NONE',  ( 0.0000000000000000000, 0.0000000000000000000, 0.5000000000000000000 ) ) ;
#134 = APPROVAL_PERSON_ORGANIZATION ( #48, #105, #159 ) ;
#135 = EDGE_LOOP ( 'NONE', ( #171, #111, #99, #94 ) ) ;
#136 = VERTEX_POINT ( 'NONE', #153 ) ;
#137 = LINE ( 'NONE', #21, #83 ) ;
#138 = PRODUCT_DEFINITION_FORMATION_WITH_SPECIFIED_SOURCE ( 'ANY', '', #164, .NOT_KNOWN. ) ;
#139 = CARTESIAN_POINT ( 'NONE',  ( 0.0000000000000000000, 0.0000000000000000000, 0.5000000000000000000 ) ) ;
#140 = PERSON ( 'UNSPECIFIED', 'UNSPECIFIED', 'UNSPECIFIED', ('UNSPECIFIED'), ('UNSPECIFIED'), ('UNSPECIFIED') ) ;
#141 = LOCAL_TIME ( 13, 30, 49.00000000000000000, #40 ) ;
#142 = AXIS2_PLACEMENT_3D ( 'NONE', #11, #53, #23 ) ;
#143 = DATE_AND_TIME ( #150, #165 ) ;
#144 = APPROVAL_STATUS ( 'not_yet_approved' ) ;
#145 = EDGE_LOOP ( 'NONE', ( #56, #98 ) ) ;
#146 = LINE ( 'NONE', #17, #87 ) ;
#147 = APPROVAL ( #144, 'UNSPECIFIED' ) ;
#148 = CARTESIAN_POINT ( 'NONE',  ( -12.50000000000000000, 1.530808498934191500E-015, 0.5000000000000000000 ) ) ;
#149 = CYLINDRICAL_SURFACE ( 'NONE', #142, 12.50000000000000000 ) ;
#150 = CALENDAR_DATE ( 2017, 10, 4 ) ;
#151 = AXIS2_PLACEMENT_3D ( 'NONE', #16, #64, #49 ) ;
#152 = CIRCLE ( 'NONE', #131, 12.50000000000000000 ) ;
#153 = CARTESIAN_POINT ( 'NONE',  ( 12.50000000000000000, 0.0000000000000000000, -0.5000000000000000000 ) ) ;
#154 = PERSON_AND_ORGANIZATION_ROLE ( 'classification_officer' ) ;
#155 = DIRECTION ( 'NONE',  ( -0.0000000000000000000, -0.0000000000000000000, 1.000000000000000000 ) ) ;
#156 = VERTEX_POINT ( 'NONE', #59 ) ;
#157 = CC_DESIGN_APPROVAL ( #147, ( #138 ) ) ;
#158 = SHAPE_DEFINITION_REPRESENTATION ( #172, #6 ) ;
#159 = APPROVAL_ROLE ( '' ) ;
#160 = ADVANCED_FACE ( 'NONE', ( #124 ), #76, .F. ) ;
#161 = APPROVAL_STATUS ( 'not_yet_approved' ) ;
#162 = AXIS2_PLACEMENT_3D ( 'NONE', #80, #97, #110 ) ;
#163 = CIRCLE ( 'NONE', #123, 12.50000000000000000 ) ;
#164 = PRODUCT ( 'Web Model 43817_46607', 'Web Model 43817_46607', '', ( #28 ) ) ;
#165 = LOCAL_TIME ( 13, 30, 49.00000000000000000, #58 ) ;
#166 = CC_DESIGN_PERSON_AND_ORGANIZATION_ASSIGNMENT ( #82, #75, ( #138 ) ) ;
#167 = PERSON_AND_ORGANIZATION_ROLE ( 'creator' ) ;
#168 = ORIENTED_EDGE ( 'NONE', *, *, #95, .F. ) ;
#169 = MANIFOLD_SOLID_BREP ( 'Revolve2', #175 ) ;
#170 = APPROVAL_PERSON_ORGANIZATION ( #132, #38, #122 ) ;
#171 = ORIENTED_EDGE ( 'NONE', *, *, #114, .T. ) ;
#172 = PRODUCT_DEFINITION_SHAPE ( 'NONE', 'NONE',  #93 ) ;
#173 = CC_DESIGN_PERSON_AND_ORGANIZATION_ASSIGNMENT ( #65, #125, ( #138 ) ) ;
#174 = DIRECTION ( 'NONE',  ( -1.000000000000000000, 0.0000000000000000000, -0.0000000000000000000 ) ) ;
#175 = CLOSED_SHELL ( 'NONE', ( #50, #129, #115, #160 ) ) ;
ENDSEC;
END-ISO-10303-21;
