ISO-10303-21;
HEADER;
FILE_DESCRIPTION (( 'STEP AP203' ),
    '1' );
FILE_NAME ('4290-E0W.STEP',
    '2015-05-29T14:23:14',
    ( 'admin' ),
    ( '' ),
    'SwSTEP 2.0',
    'SolidWorks 2014',
    '' );
FILE_SCHEMA (( 'CONFIG_CONTROL_DESIGN' ));
ENDSEC;

DATA;
#1 = CARTESIAN_POINT ( 'NONE',  ( -1.100000000000000100, 0.0000000000000000000, 0.0000000000000000000 ) ) ;
#2 = VERTEX_POINT ( 'NONE', #267 ) ;
#3 = AXIS2_PLACEMENT_3D ( 'NONE', #40, #49, #220 ) ;
#4 = APPROVAL_ROLE ( '' ) ;
#5 = DESIGN_CONTEXT ( 'detailed design', #249, 'design' ) ;
#6 = COORDINATED_UNIVERSAL_TIME_OFFSET ( 5, 0, .BEHIND. ) ;
#7 = ORIENTED_EDGE ( 'NONE', *, *, #223, .T. ) ;
#8 = DIRECTION ( 'NONE',  ( 0.0000000000000000000, 0.0000000000000000000, 1.000000000000000000 ) ) ;
#9 = DIRECTION ( 'NONE',  ( 0.0000000000000000000, 0.0000000000000000000, 1.000000000000000000 ) ) ;
#10 = AXIS2_PLACEMENT_3D ( 'NONE', #300, #149, #196 ) ;
#11 = ADVANCED_FACE ( 'NONE', ( #286 ), #290, .T. ) ;
#12 = ORIENTED_EDGE ( 'NONE', *, *, #178, .T. ) ;
#13 = PERSON_AND_ORGANIZATION ( #72, #141 ) ;
#14 = ADVANCED_FACE ( 'NONE', ( #270 ), #140, .T. ) ;
#15 = ORIENTED_EDGE ( 'NONE', *, *, #51, .T. ) ;
#16 = VERTEX_POINT ( 'NONE', #63 ) ;
#17 = DIRECTION ( 'NONE',  ( 0.0000000000000000000, 0.0000000000000000000, -1.000000000000000000 ) ) ;
#18 = CARTESIAN_POINT ( 'NONE',  ( 0.6499999999617367400, 0.0000000000000000000, 0.0000000000000000000 ) ) ;
#19 = ORIENTED_EDGE ( 'NONE', *, *, #295, .T. ) ;
#20 = ORIENTED_EDGE ( 'NONE', *, *, #178, .F. ) ;
#21 = DIRECTION ( 'NONE',  ( 0.0000000000000000000, -1.224646799147353200E-016, 1.000000000000000000 ) ) ;
#22 = CC_DESIGN_PERSON_AND_ORGANIZATION_ASSIGNMENT ( #13, #229, ( #33 ) ) ;
#23 = CARTESIAN_POINT ( 'NONE',  ( -1.100000000000000100, 0.0000000000000000000, 12.70000000000003700 ) ) ;
#24 = DIRECTION ( 'NONE',  ( 1.000000000000000000, 0.0000000000000000000, 0.0000000000000000000 ) ) ;
#25 = APPROVAL_STATUS ( 'not_yet_approved' ) ;
#26 = MECHANICAL_CONTEXT ( 'NONE', #244, 'mechanical' ) ;
#27 = AXIS2_PLACEMENT_3D ( 'NONE', #29, #188, #21 ) ;
#28 = DIRECTION ( 'NONE',  ( -1.000000000000000000, -0.0000000000000000000, -0.0000000000000000000 ) ) ;
#29 = CARTESIAN_POINT ( 'NONE',  ( -343.9987818086035500, 1.122937822591320500E-016, -0.9169483179747445200 ) ) ;
#30 = COORDINATED_UNIVERSAL_TIME_OFFSET ( 5, 0, .BEHIND. ) ;
#31 = EDGE_LOOP ( 'NONE', ( #20, #104, #111 ) ) ;
#32 = CC_DESIGN_DATE_AND_TIME_ASSIGNMENT ( #105, #187, ( #233 ) ) ;
#33 = SECURITY_CLASSIFICATION ( '', '', #67 ) ;
#34 = CC_DESIGN_PERSON_AND_ORGANIZATION_ASSIGNMENT ( #146, #168, ( #247 ) ) ;
#35 = CC_DESIGN_PERSON_AND_ORGANIZATION_ASSIGNMENT ( #153, #110, ( #247 ) ) ;
#36 = DIRECTION ( 'NONE',  ( -1.000000000000000000, -0.0000000000000000000, -0.0000000000000000000 ) ) ;
#37 = APPROVAL_PERSON_ORGANIZATION ( #123, #198, #4 ) ;
#38 =( NAMED_UNIT ( * ) SI_UNIT ( $, .STERADIAN. ) SOLID_ANGLE_UNIT ( ) );
#39 =( GEOMETRIC_REPRESENTATION_CONTEXT ( 3 ) GLOBAL_UNCERTAINTY_ASSIGNED_CONTEXT ( ( #128 ) ) GLOBAL_UNIT_ASSIGNED_CONTEXT ( ( #236, #207, #38 ) ) REPRESENTATION_CONTEXT ( 'NONE', 'WORKASPACE' ) );
#40 = CARTESIAN_POINT ( 'NONE',  ( -1.100000000000000100, 0.0000000000000000000, 0.0000000000000000000 ) ) ;
#41 = CC_DESIGN_PERSON_AND_ORGANIZATION_ASSIGNMENT ( #83, #206, ( #233 ) ) ;
#42 = CIRCLE ( 'NONE', #219, 12.44999999999999800 ) ;
#43 = ORIENTED_EDGE ( 'NONE', *, *, #213, .F. ) ;
#44 = CIRCLE ( 'NONE', #92, 12.45023625365315600 ) ;
#45 = CYLINDRICAL_SURFACE ( 'NONE', #112, 12.70000000000003700 ) ;
#46 = LINE ( 'NONE', #239, #55 ) ;
#47 = AXIS2_PLACEMENT_3D ( 'NONE', #18, #283, #138 ) ;
#48 = LINE ( 'NONE', #174, #164 ) ;
#49 = DIRECTION ( 'NONE',  ( -1.000000000000000000, -0.0000000000000000000, -0.0000000000000000000 ) ) ;
#50 = CARTESIAN_POINT ( 'NONE',  ( -1.100000000000000100, 0.0000000000000000000, 0.0000000000000000000 ) ) ;
#51 = EDGE_CURVE ( 'NONE', #133, #16, #271, .T. ) ;
#52 = ORIENTED_EDGE ( 'NONE', *, *, #237, .F. ) ;
#53 = EDGE_CURVE ( 'NONE', #210, #120, #292, .T. ) ;
#54 = CALENDAR_DATE ( 2015, 29, 5 ) ;
#55 = VECTOR ( 'NONE', #299, 1000.000000000000200 ) ;
#56 = DIRECTION ( 'NONE',  ( -1.000000000000000000, -0.0000000000000000000, -0.0000000000000000000 ) ) ;
#57 = DIRECTION ( 'NONE',  ( 0.0000000000000000000, 0.0000000000000000000, -1.000000000000000000 ) ) ;
#58 = CARTESIAN_POINT ( 'NONE',  ( -1.100000000000000100, 0.0000000000000000000, -12.44999999999999800 ) ) ;
#59 = VECTOR ( 'NONE', #183, 1000.000000000000200 ) ;
#60 = CARTESIAN_POINT ( 'NONE',  ( -343.9987818086035500, 0.0000000000000000000, 0.0000000000000000000 ) ) ;
#61 = VERTEX_POINT ( 'NONE', #255 ) ;
#62 = CIRCLE ( 'NONE', #227, 12.70000000000003700 ) ;
#63 = CARTESIAN_POINT ( 'NONE',  ( 0.9084423392717311300, 0.0000000000000000000, 12.45023625365383600 ) ) ;
#64 = CARTESIAN_POINT ( 'NONE',  ( -343.9987818086035500, 0.0000000000000000000, 0.9169483179747445200 ) ) ;
#65 = CARTESIAN_POINT ( 'NONE',  ( 1.100000000000000100, 0.0000000000000000000, 0.0000000000000000000 ) ) ;
#66 = AXIS2_PLACEMENT_3D ( 'NONE', #69, #131, #129 ) ;
#67 = SECURITY_CLASSIFICATION_LEVEL ( 'unclassified' ) ;
#68 = SHAPE_DEFINITION_REPRESENTATION ( #280, #173 ) ;
#69 = CARTESIAN_POINT ( 'NONE',  ( -0.8499999999999634500, 0.0000000000000000000, 0.0000000000000000000 ) ) ;
#70 = APPROVAL_ROLE ( '' ) ;
#71 = CARTESIAN_POINT ( 'NONE',  ( -1.100000000000000100, 0.0000000000000000000, 0.0000000000000000000 ) ) ;
#72 = PERSON ( 'UNSPECIFIED', 'UNSPECIFIED', 'UNSPECIFIED', ('UNSPECIFIED'), ('UNSPECIFIED'), ('UNSPECIFIED') ) ;
#73 = ORIENTED_EDGE ( 'NONE', *, *, #242, .F. ) ;
#74 = VERTEX_POINT ( 'NONE', #65 ) ;
#75 = ORIENTED_EDGE ( 'NONE', *, *, #192, .F. ) ;
#76 = DIRECTION ( 'NONE',  ( -0.7190771433635216900, 8.510441146877722200E-017, -0.6949302568547128800 ) ) ;
#77 = DIRECTION ( 'NONE',  ( 1.000000000000000000, 0.0000000000000000000, 0.0000000000000000000 ) ) ;
#78 = AXIS2_PLACEMENT_3D ( 'NONE', #118, #288, #145 ) ;
#79 = PERSON_AND_ORGANIZATION ( #72, #141 ) ;
#80 = APPROVAL_PERSON_ORGANIZATION ( #142, #172, #90 ) ;
#81 = ORIENTED_EDGE ( 'NONE', *, *, #214, .F. ) ;
#82 = DATE_AND_TIME ( #261, #148 ) ;
#83 = PERSON_AND_ORGANIZATION ( #72, #141 ) ;
#84 = CARTESIAN_POINT ( 'NONE',  ( -343.9987818086035500, 0.0000000000000000000, 0.0000000000000000000 ) ) ;
#85 = LOCAL_TIME ( 10, 23, 14.00000000000000000, #167 ) ;
#86 = DIRECTION ( 'NONE',  ( 0.0000000000000000000, 0.0000000000000000000, 1.000000000000000000 ) ) ;
#87 = EDGE_LOOP ( 'NONE', ( #191, #12, #15 ) ) ;
#88 = CALENDAR_DATE ( 2015, 29, 5 ) ;
#89 = DATE_AND_TIME ( #88, #85 ) ;
#90 = APPROVAL_ROLE ( '' ) ;
#91 = CARTESIAN_POINT ( 'NONE',  ( -1.100000000000000100, 0.0000000000000000000, 0.0000000000000000000 ) ) ;
#92 = AXIS2_PLACEMENT_3D ( 'NONE', #126, #77, #8 ) ;
#93 = DATE_AND_TIME ( #158, #241 ) ;
#94 = ADVANCED_FACE ( 'NONE', ( #134 ), #248, .T. ) ;
#95 = ADVANCED_FACE ( 'NONE', ( #113 ), #204, .T. ) ;
#96 = DIRECTION ( 'NONE',  ( 0.0000000000000000000, -1.000000000000000000, 0.0000000000000000000 ) ) ;
#97 = EDGE_LOOP ( 'NONE', ( #259, #224, #301, #234 ) ) ;
#98 = ADVANCED_FACE ( 'NONE', ( #226 ), #186, .T. ) ;
#99 = APPROVAL_DATE_TIME ( #93, #198 ) ;
#100 = DIRECTION ( 'NONE',  ( 0.0000000000000000000, 0.0000000000000000000, -1.000000000000000000 ) ) ;
#101 = EDGE_CURVE ( 'NONE', #184, #185, #217, .T. ) ;
#102 = CARTESIAN_POINT ( 'NONE',  ( 0.9084423392717311300, 0.0000000000000000000, 0.0000000000000000000 ) ) ;
#103 = APPROVAL_PERSON_ORGANIZATION ( #161, #284, #70 ) ;
#104 = ORIENTED_EDGE ( 'NONE', *, *, #201, .T. ) ;
#105 = DATE_AND_TIME ( #246, #252 ) ;
#106 = COORDINATED_UNIVERSAL_TIME_OFFSET ( 5, 0, .BEHIND. ) ;
#107 = MANIFOLD_SOLID_BREP ( '4290-001-1-solid1', #263 ) ;
#108 = APPLICATION_PROTOCOL_DEFINITION ( 'international standard', 'config_control_design', 1994, #249 ) ;
#109 = FACE_OUTER_BOUND ( 'NONE', #136, .T. ) ;
#110 = PERSON_AND_ORGANIZATION_ROLE ( 'creator' ) ;
#111 = ORIENTED_EDGE ( 'NONE', *, *, #213, .T. ) ;
#112 = AXIS2_PLACEMENT_3D ( 'NONE', #1, #36, #212 ) ;
#113 = FACE_OUTER_BOUND ( 'NONE', #175, .T. ) ;
#114 = CARTESIAN_POINT ( 'NONE',  ( -0.8499999999999634500, 0.0000000000000000000, 12.70000000000003700 ) ) ;
#115 = CARTESIAN_POINT ( 'NONE',  ( 0.6499999999617367400, 1.555301434917143000E-015, -12.70000000000003700 ) ) ;
#116 = ORIENTED_EDGE ( 'NONE', *, *, #150, .F. ) ;
#117 = CARTESIAN_POINT ( 'NONE',  ( -0.8499999999999634500, 1.555301434917143000E-015, -12.70000000000003700 ) ) ;
#118 = CARTESIAN_POINT ( 'NONE',  ( 0.6499999999617367400, 0.0000000000000000000, 0.0000000000000000000 ) ) ;
#119 = DIRECTION ( 'NONE',  ( -0.7190771433635216900, 0.0000000000000000000, 0.6949302568547128800 ) ) ;
#120 = VERTEX_POINT ( 'NONE', #124 ) ;
#121 = PERSON_AND_ORGANIZATION_ROLE ( 'design_owner' ) ;
#122 = LINE ( 'NONE', #222, #257 ) ;
#123 = PERSON_AND_ORGANIZATION ( #72, #141 ) ;
#124 = CARTESIAN_POINT ( 'NONE',  ( -1.100000000000000100, 1.539993349927798500E-015, 12.44999999999999800 ) ) ;
#125 = DATE_AND_TIME ( #54, #137 ) ;
#126 = CARTESIAN_POINT ( 'NONE',  ( 0.9084423392717311300, 0.0000000000000000000, 0.0000000000000000000 ) ) ;
#127 = AXIS2_PLACEMENT_3D ( 'NONE', #60, #56, #203 ) ;
#128 = UNCERTAINTY_MEASURE_WITH_UNIT (LENGTH_MEASURE( 1.000000000000000100E-005 ), #236, 'distance_accuracy_value', 'NONE');
#129 = DIRECTION ( 'NONE',  ( 0.0000000000000000000, 0.0000000000000000000, -1.000000000000000000 ) ) ;
#130 = CIRCLE ( 'NONE', #287, 12.70000000000003700 ) ;
#131 = DIRECTION ( 'NONE',  ( 1.000000000000000000, 0.0000000000000000000, 0.0000000000000000000 ) ) ;
#132 = AXIS2_PLACEMENT_3D ( 'NONE', #64, #96, #281 ) ;
#133 = VERTEX_POINT ( 'NONE', #163 ) ;
#134 = FACE_OUTER_BOUND ( 'NONE', #31, .T. ) ;
#135 = AXIS2_PLACEMENT_3D ( 'NONE', #84, #269, #9 ) ;
#136 = EDGE_LOOP ( 'NONE', ( #116, #194, #225, #157 ) ) ;
#137 = LOCAL_TIME ( 10, 23, 14.00000000000000000, #30 ) ;
#138 = DIRECTION ( 'NONE',  ( 0.0000000000000000000, 0.0000000000000000000, 1.000000000000000000 ) ) ;
#139 = CARTESIAN_POINT ( 'NONE',  ( -1.100000000000000100, 0.0000000000000000000, 0.0000000000000000000 ) ) ;
#140 = CONICAL_SURFACE ( 'NONE', #10, 12.44999999999999800, 0.7853981633974518300 ) ;
#141 = ORGANIZATION ( 'UNSPECIFIED', 'UNSPECIFIED', '' ) ;
#142 = PERSON_AND_ORGANIZATION ( #72, #141 ) ;
#143 = AXIS2_PLACEMENT_3D ( 'NONE', #91, #231, #289 ) ;
#144 = ORIENTED_EDGE ( 'NONE', *, *, #192, .T. ) ;
#145 = DIRECTION ( 'NONE',  ( 0.0000000000000000000, 0.0000000000000000000, 1.000000000000000000 ) ) ;
#146 = PERSON_AND_ORGANIZATION ( #72, #141 ) ;
#147 = ORIENTED_EDGE ( 'NONE', *, *, #53, .F. ) ;
#148 = LOCAL_TIME ( 10, 23, 14.00000000000000000, #243 ) ;
#149 = DIRECTION ( 'NONE',  ( 1.000000000000000000, 0.0000000000000000000, 0.0000000000000000000 ) ) ;
#150 = EDGE_CURVE ( 'NONE', #61, #185, #122, .T. ) ;
#151 = CC_DESIGN_PERSON_AND_ORGANIZATION_ASSIGNMENT ( #79, #121, ( #154 ) ) ;
#152 = APPROVAL_DATE_TIME ( #82, #172 ) ;
#153 = PERSON_AND_ORGANIZATION ( #72, #141 ) ;
#154 = PRODUCT ( '4290-E0W', '4290-E0W', '', ( #26 ) ) ;
#155 = EDGE_LOOP ( 'NONE', ( #75, #43, #264, #52 ) ) ;
#156 = ORIENTED_EDGE ( 'NONE', *, *, #221, .F. ) ;
#157 = ORIENTED_EDGE ( 'NONE', *, *, #101, .T. ) ;
#158 = CALENDAR_DATE ( 2015, 29, 5 ) ;
#159 = DIRECTION ( 'NONE',  ( -1.000000000000000000, -0.0000000000000000000, -0.0000000000000000000 ) ) ;
#160 = APPROVAL_DATE_TIME ( #89, #284 ) ;
#161 = PERSON_AND_ORGANIZATION ( #72, #141 ) ;
#162 = DIRECTION ( 'NONE',  ( 0.0000000000000000000, 0.0000000000000000000, 1.000000000000000000 ) ) ;
#163 = CARTESIAN_POINT ( 'NONE',  ( 0.9084423392717311300, 1.524714197666550300E-015, -12.45023625365383600 ) ) ;
#164 = VECTOR ( 'NONE', #119, 1000.000000000000100 ) ;
#165 = VECTOR ( 'NONE', #28, 1000.000000000000000 ) ;
#166 = DIRECTION ( 'NONE',  ( 0.0000000000000000000, 0.0000000000000000000, 1.000000000000000000 ) ) ;
#167 = COORDINATED_UNIVERSAL_TIME_OFFSET ( 5, 0, .BEHIND. ) ;
#168 = PERSON_AND_ORGANIZATION_ROLE ( 'design_supplier' ) ;
#169 = ADVANCED_FACE ( 'NONE', ( #273 ), #205, .T. ) ;
#170 = PRODUCT_RELATED_PRODUCT_CATEGORY ( 'detail', '', ( #154 ) ) ;
#171 = FACE_OUTER_BOUND ( 'NONE', #97, .T. ) ;
#172 = APPROVAL ( #216, 'UNSPECIFIED' ) ;
#173 = ADVANCED_BREP_SHAPE_REPRESENTATION ( '4290-E0W', ( #107, #208 ), #39 ) ;
#174 = CARTESIAN_POINT ( 'NONE',  ( 0.6499999999617367400, 0.0000000000000000000, 12.70000000000003700 ) ) ;
#175 = EDGE_LOOP ( 'NONE', ( #251, #144, #232, #73 ) ) ;
#176 = VECTOR ( 'NONE', #76, 1000.000000000000100 ) ;
#177 = EDGE_CURVE ( 'NONE', #2, #61, #218, .T. ) ;
#178 = EDGE_CURVE ( 'NONE', #74, #133, #230, .T. ) ;
#179 = APPROVAL_STATUS ( 'not_yet_approved' ) ;
#180 = EDGE_LOOP ( 'NONE', ( #278, #277, #19, #81 ) ) ;
#181 = FACE_OUTER_BOUND ( 'NONE', #268, .T. ) ;
#182 = CIRCLE ( 'NONE', #132, 345.0999999999999700 ) ;
#183 = DIRECTION ( 'NONE',  ( 0.7071067811865450200, 0.0000000000000000000, -0.7071067811865500200 ) ) ;
#184 = VERTEX_POINT ( 'NONE', #114 ) ;
#185 = VERTEX_POINT ( 'NONE', #117 ) ;
#186 = CONICAL_SURFACE ( 'NONE', #47, 12.70000000000003700, 0.7683229064584512500 ) ;
#187 = DATE_TIME_ROLE ( 'creation_date' ) ;
#188 = DIRECTION ( 'NONE',  ( -0.0000000000000000000, 1.000000000000000000, 1.224646799147353200E-016 ) ) ;
#189 = DATE_TIME_ROLE ( 'classification_date' ) ;
#190 = CC_DESIGN_SECURITY_CLASSIFICATION ( #33, ( #247 ) ) ;
#191 = ORIENTED_EDGE ( 'NONE', *, *, #201, .F. ) ;
#192 = EDGE_CURVE ( 'NONE', #133, #61, #238, .T. ) ;
#193 = DIRECTION ( 'NONE',  ( -1.000000000000000000, -0.0000000000000000000, -0.0000000000000000000 ) ) ;
#194 = ORIENTED_EDGE ( 'NONE', *, *, #237, .T. ) ;
#195 = CC_DESIGN_APPROVAL ( #198, ( #33 ) ) ;
#196 = DIRECTION ( 'NONE',  ( 0.0000000000000000000, 0.0000000000000000000, -1.000000000000000000 ) ) ;
#197 = LINE ( 'NONE', #23, #165 ) ;
#198 = APPROVAL ( #179, 'UNSPECIFIED' ) ;
#199 = ADVANCED_FACE ( 'NONE', ( #181 ), #296, .F. ) ;
#200 = AXIS2_PLACEMENT_3D ( 'NONE', #50, #215, #17 ) ;
#201 = EDGE_CURVE ( 'NONE', #74, #16, #182, .T. ) ;
#202 = ADVANCED_FACE ( 'NONE', ( #109 ), #45, .T. ) ;
#203 = DIRECTION ( 'NONE',  ( 0.0000000000000000000, 0.0000000000000000000, 1.000000000000000000 ) ) ;
#204 = CONICAL_SURFACE ( 'NONE', #235, 12.70000000000003700, 0.7683229064584512500 ) ;
#205 = CYLINDRICAL_SURFACE ( 'NONE', #3, 12.70000000000003700 ) ;
#206 = PERSON_AND_ORGANIZATION_ROLE ( 'creator' ) ;
#207 =( NAMED_UNIT ( * ) PLANE_ANGLE_UNIT ( ) SI_UNIT ( $, .RADIAN. ) );
#208 = AXIS2_PLACEMENT_3D ( 'NONE', #291, #285, #24 ) ;
#209 = CARTESIAN_POINT ( 'NONE',  ( -1.100000000000000100, 0.0000000000000000000, -12.44999999999999800 ) ) ;
#210 = VERTEX_POINT ( 'NONE', #209 ) ;
#211 = CARTESIAN_POINT ( 'NONE',  ( 0.6499999999617367400, 0.0000000000000000000, 0.0000000000000000000 ) ) ;
#212 = DIRECTION ( 'NONE',  ( 0.0000000000000000000, 0.0000000000000000000, 1.000000000000000000 ) ) ;
#213 = EDGE_CURVE ( 'NONE', #16, #133, #44, .T. ) ;
#214 = EDGE_CURVE ( 'NONE', #2, #184, #197, .T. ) ;
#215 = DIRECTION ( 'NONE',  ( 1.000000000000000000, 0.0000000000000000000, 0.0000000000000000000 ) ) ;
#216 = APPROVAL_STATUS ( 'not_yet_approved' ) ;
#217 = CIRCLE ( 'NONE', #66, 12.70000000000003700 ) ;
#218 = CIRCLE ( 'NONE', #78, 12.70000000000003700 ) ;
#219 = AXIS2_PLACEMENT_3D ( 'NONE', #139, #266, #57 ) ;
#220 = DIRECTION ( 'NONE',  ( 0.0000000000000000000, 0.0000000000000000000, 1.000000000000000000 ) ) ;
#221 = EDGE_CURVE ( 'NONE', #120, #184, #46, .T. ) ;
#222 = CARTESIAN_POINT ( 'NONE',  ( -1.100000000000000100, 1.555301434917143000E-015, -12.70000000000003700 ) ) ;
#223 = EDGE_CURVE ( 'NONE', #120, #210, #42, .T. ) ;
#224 = ORIENTED_EDGE ( 'NONE', *, *, #221, .T. ) ;
#225 = ORIENTED_EDGE ( 'NONE', *, *, #214, .T. ) ;
#226 = FACE_OUTER_BOUND ( 'NONE', #155, .T. ) ;
#227 = AXIS2_PLACEMENT_3D ( 'NONE', #297, #298, #100 ) ;
#228 = CC_DESIGN_APPROVAL ( #172, ( #233 ) ) ;
#229 = PERSON_AND_ORGANIZATION_ROLE ( 'classification_officer' ) ;
#230 = CIRCLE ( 'NONE', #27, 345.0999999999999700 ) ;
#231 = DIRECTION ( 'NONE',  ( 1.000000000000000000, 0.0000000000000000000, 0.0000000000000000000 ) ) ;
#232 = ORIENTED_EDGE ( 'NONE', *, *, #177, .F. ) ;
#233 = PRODUCT_DEFINITION ( 'UNKNOWN', '', #247, #5 ) ;
#234 = ORIENTED_EDGE ( 'NONE', *, *, #260, .F. ) ;
#235 = AXIS2_PLACEMENT_3D ( 'NONE', #211, #159, #86 ) ;
#236 =( LENGTH_UNIT ( ) NAMED_UNIT ( * ) SI_UNIT ( .MILLI., .METRE. ) );
#237 = EDGE_CURVE ( 'NONE', #61, #2, #130, .T. ) ;
#238 = LINE ( 'NONE', #115, #176 ) ;
#239 = CARTESIAN_POINT ( 'NONE',  ( -1.100000000000000100, 1.524685264938454400E-015, 12.44999999999999800 ) ) ;
#240 = APPLICATION_PROTOCOL_DEFINITION ( 'international standard', 'config_control_design', 1994, #244 ) ;
#241 = LOCAL_TIME ( 10, 23, 14.00000000000000000, #6 ) ;
#242 = EDGE_CURVE ( 'NONE', #16, #2, #48, .T. ) ;
#243 = COORDINATED_UNIVERSAL_TIME_OFFSET ( 5, 0, .BEHIND. ) ;
#244 = APPLICATION_CONTEXT ( 'configuration controlled 3d designs of mechanical parts and assemblies' ) ;
#245 = CONICAL_SURFACE ( 'NONE', #143, 12.44999999999999800, 0.7853981633974518300 ) ;
#246 = CALENDAR_DATE ( 2015, 29, 5 ) ;
#247 = PRODUCT_DEFINITION_FORMATION_WITH_SPECIFIED_SOURCE ( 'ANY', '', #154, .NOT_KNOWN. ) ;
#248 = TOROIDAL_SURFACE ( 'NONE', #135, 0.9169483179747445200, 345.0999999999999700 ) ;
#249 = APPLICATION_CONTEXT ( 'configuration controlled 3d designs of mechanical parts and assemblies' ) ;
#250 = CC_DESIGN_APPROVAL ( #284, ( #247 ) ) ;
#251 = ORIENTED_EDGE ( 'NONE', *, *, #51, .F. ) ;
#252 = LOCAL_TIME ( 10, 23, 14.00000000000000000, #106 ) ;
#253 = ORIENTED_EDGE ( 'NONE', *, *, #101, .F. ) ;
#254 = ORIENTED_EDGE ( 'NONE', *, *, #53, .T. ) ;
#255 = CARTESIAN_POINT ( 'NONE',  ( 0.6499999999617367400, 1.555301434917143000E-015, -12.70000000000003700 ) ) ;
#256 = CARTESIAN_POINT ( 'NONE',  ( 0.6499999999617367400, 0.0000000000000000000, 0.0000000000000000000 ) ) ;
#257 = VECTOR ( 'NONE', #262, 1000.000000000000000 ) ;
#258 = DIRECTION ( 'NONE',  ( 1.000000000000000000, 0.0000000000000000000, 0.0000000000000000000 ) ) ;
#259 = ORIENTED_EDGE ( 'NONE', *, *, #223, .F. ) ;
#260 = EDGE_CURVE ( 'NONE', #210, #185, #293, .T. ) ;
#261 = CALENDAR_DATE ( 2015, 29, 5 ) ;
#262 = DIRECTION ( 'NONE',  ( -1.000000000000000000, -0.0000000000000000000, -0.0000000000000000000 ) ) ;
#263 = CLOSED_SHELL ( 'NONE', ( #294, #95, #11, #169, #199, #202, #94, #98, #14 ) ) ;
#264 = ORIENTED_EDGE ( 'NONE', *, *, #242, .T. ) ;
#265 = DIRECTION ( 'NONE',  ( -1.000000000000000000, -0.0000000000000000000, -0.0000000000000000000 ) ) ;
#266 = DIRECTION ( 'NONE',  ( -1.000000000000000000, -0.0000000000000000000, -0.0000000000000000000 ) ) ;
#267 = CARTESIAN_POINT ( 'NONE',  ( 0.6499999999617367400, 0.0000000000000000000, 12.70000000000003700 ) ) ;
#268 = EDGE_LOOP ( 'NONE', ( #254, #7 ) ) ;
#269 = DIRECTION ( 'NONE',  ( -1.000000000000000000, -0.0000000000000000000, -0.0000000000000000000 ) ) ;
#270 = FACE_OUTER_BOUND ( 'NONE', #275, .T. ) ;
#271 = CIRCLE ( 'NONE', #279, 12.45023625365315600 ) ;
#272 = AXIS2_PLACEMENT_3D ( 'NONE', #71, #265, #274 ) ;
#273 = FACE_OUTER_BOUND ( 'NONE', #180, .T. ) ;
#274 = DIRECTION ( 'NONE',  ( 0.0000000000000000000, 0.0000000000000000000, -1.000000000000000000 ) ) ;
#275 = EDGE_LOOP ( 'NONE', ( #156, #147, #282, #253 ) ) ;
#276 = CC_DESIGN_DATE_AND_TIME_ASSIGNMENT ( #125, #189, ( #33 ) ) ;
#277 = ORIENTED_EDGE ( 'NONE', *, *, #150, .T. ) ;
#278 = ORIENTED_EDGE ( 'NONE', *, *, #177, .T. ) ;
#279 = AXIS2_PLACEMENT_3D ( 'NONE', #102, #258, #166 ) ;
#280 = PRODUCT_DEFINITION_SHAPE ( 'NONE', 'NONE',  #233 ) ;
#281 = DIRECTION ( 'NONE',  ( 0.0000000000000000000, 0.0000000000000000000, -1.000000000000000000 ) ) ;
#282 = ORIENTED_EDGE ( 'NONE', *, *, #260, .T. ) ;
#283 = DIRECTION ( 'NONE',  ( -1.000000000000000000, -0.0000000000000000000, -0.0000000000000000000 ) ) ;
#284 = APPROVAL ( #25, 'UNSPECIFIED' ) ;
#285 = DIRECTION ( 'NONE',  ( 0.0000000000000000000, 0.0000000000000000000, 1.000000000000000000 ) ) ;
#286 = FACE_OUTER_BOUND ( 'NONE', #87, .T. ) ;
#287 = AXIS2_PLACEMENT_3D ( 'NONE', #256, #193, #162 ) ;
#288 = DIRECTION ( 'NONE',  ( -1.000000000000000000, -0.0000000000000000000, -0.0000000000000000000 ) ) ;
#289 = DIRECTION ( 'NONE',  ( 0.0000000000000000000, 0.0000000000000000000, -1.000000000000000000 ) ) ;
#290 = TOROIDAL_SURFACE ( 'NONE', #127, 0.9169483179747445200, 345.0999999999999700 ) ;
#291 = CARTESIAN_POINT ( 'NONE',  ( 0.0000000000000000000, 0.0000000000000000000, 0.0000000000000000000 ) ) ;
#292 = CIRCLE ( 'NONE', #272, 12.44999999999999800 ) ;
#293 = LINE ( 'NONE', #58, #59 ) ;
#294 = ADVANCED_FACE ( 'NONE', ( #171 ), #245, .T. ) ;
#295 = EDGE_CURVE ( 'NONE', #185, #184, #62, .T. ) ;
#296 = PLANE ( 'NONE',  #200 ) ;
#297 = CARTESIAN_POINT ( 'NONE',  ( -0.8499999999999634500, 0.0000000000000000000, 0.0000000000000000000 ) ) ;
#298 = DIRECTION ( 'NONE',  ( 1.000000000000000000, 0.0000000000000000000, 0.0000000000000000000 ) ) ;
#299 = DIRECTION ( 'NONE',  ( 0.7071067811865450200, 8.659560562354962400E-017, 0.7071067811865500200 ) ) ;
#300 = CARTESIAN_POINT ( 'NONE',  ( -1.100000000000000100, 0.0000000000000000000, 0.0000000000000000000 ) ) ;
#301 = ORIENTED_EDGE ( 'NONE', *, *, #295, .F. ) ;
ENDSEC;
END-ISO-10303-21;
