ISO-10303-21;
HEADER;
FILE_DESCRIPTION (( 'STEP AP203' ),
    '1' );
FILE_NAME ('Web Model 68740_62646.step',
    '2017-03-06T19:17:22',
    ( '' ),
    ( '' ),
    'SwSTEP 2.0',
    'SolidWorks 2016',
    '' );
FILE_SCHEMA (( 'CONFIG_CONTROL_DESIGN' ));
ENDSEC;

DATA;
#1 = DATE_TIME_ROLE ( 'creation_date' ) ;
#2 = DIRECTION ( 'NONE',  ( 0.0000000000000000000, 0.0000000000000000000, -1.000000000000000000 ) ) ;
#3 = CC_DESIGN_DATE_AND_TIME_ASSIGNMENT ( #110, #1, ( #127 ) ) ;
#4 = ORIENTED_EDGE ( 'NONE', *, *, #101, .T. ) ;
#5 = DIRECTION ( 'NONE',  ( 0.0000000000000000000, 0.0000000000000000000, -1.000000000000000000 ) ) ;
#6 = VERTEX_POINT ( 'NONE', #42 ) ;
#7 = DIRECTION ( 'NONE',  ( 1.000000000000000000, 0.0000000000000000000, 0.0000000000000000000 ) ) ;
#8 = CARTESIAN_POINT ( 'NONE',  ( 3.000000000000000000, 0.0000000000000000000, 0.0000000000000000000 ) ) ;
#9 = CARTESIAN_POINT ( 'NONE',  ( 3.000000000000000000, 0.0000000000000000000, 0.0000000000000000000 ) ) ;
#10 = APPROVAL_STATUS ( 'not_yet_approved' ) ;
#11 = CYLINDRICAL_SURFACE ( 'NONE', #89, 25.00000000000000000 ) ;
#12 = PRODUCT_DEFINITION_FORMATION_WITH_SPECIFIED_SOURCE ( 'ANY', '', #28, .NOT_KNOWN. ) ;
#13 = CIRCLE ( 'NONE', #44, 25.00000000000000000 ) ;
#14 = MANIFOLD_SOLID_BREP ( 'Extrude1', #53 ) ;
#15 = APPROVAL_ROLE ( '' ) ;
#16 = DATE_AND_TIME ( #163, #22 ) ;
#17 = CARTESIAN_POINT ( 'NONE',  ( 0.0000000000000000000, 0.0000000000000000000, 0.0000000000000000000 ) ) ;
#18 = CARTESIAN_POINT ( 'NONE',  ( 3.000000000000000000, 0.0000000000000000000, 0.0000000000000000000 ) ) ;
#19 = ORIENTED_EDGE ( 'NONE', *, *, #100, .T. ) ;
#20 = APPROVAL ( #10, 'UNSPECIFIED' ) ;
#21 = DATE_AND_TIME ( #23, #156 ) ;
#22 = LOCAL_TIME ( 14, 17, 22.00000000000000000, #69 ) ;
#23 = CALENDAR_DATE ( 2017, 6, 3 ) ;
#24 = VECTOR ( 'NONE', #104, 1000.000000000000000 ) ;
#25 = APPLICATION_CONTEXT ( 'configuration controlled 3d designs of mechanical parts and assemblies' ) ;
#26 = ORIENTED_EDGE ( 'NONE', *, *, #165, .T. ) ;
#27 = CC_DESIGN_APPROVAL ( #20, ( #12 ) ) ;
#28 = PRODUCT ( 'Web Model 68740_62646', 'Web Model 68740_62646', '', ( #37 ) ) ;
#29 =( GEOMETRIC_REPRESENTATION_CONTEXT ( 3 ) GLOBAL_UNCERTAINTY_ASSIGNED_CONTEXT ( ( #55 ) ) GLOBAL_UNIT_ASSIGNED_CONTEXT ( ( #83, #60, #169 ) ) REPRESENTATION_CONTEXT ( 'NONE', 'WORKASPACE' ) );
#30 = CC_DESIGN_PERSON_AND_ORGANIZATION_ASSIGNMENT ( #147, #129, ( #28 ) ) ;
#31 = DIRECTION ( 'NONE',  ( 0.0000000000000000000, 0.0000000000000000000, 1.000000000000000000 ) ) ;
#32 = DATE_AND_TIME ( #103, #159 ) ;
#33 = CC_DESIGN_PERSON_AND_ORGANIZATION_ASSIGNMENT ( #164, #107, ( #12 ) ) ;
#34 = LINE ( 'NONE', #136, #24 ) ;
#35 = ORIENTED_EDGE ( 'NONE', *, *, #100, .F. ) ;
#36 = APPROVAL_STATUS ( 'not_yet_approved' ) ;
#37 = MECHANICAL_CONTEXT ( 'NONE', #54, 'mechanical' ) ;
#38 = DIRECTION ( 'NONE',  ( -1.000000000000000000, -0.0000000000000000000, -0.0000000000000000000 ) ) ;
#39 = DATE_AND_TIME ( #150, #74 ) ;
#40 = LINE ( 'NONE', #43, #158 ) ;
#41 = PLANE ( 'NONE',  #133 ) ;
#42 = CARTESIAN_POINT ( 'NONE',  ( 0.0000000000000000000, 3.061616997868383000E-015, -25.00000000000000000 ) ) ;
#43 = CARTESIAN_POINT ( 'NONE',  ( 3.000000000000000000, 3.061616997868383000E-015, -25.00000000000000000 ) ) ;
#44 = AXIS2_PLACEMENT_3D ( 'NONE', #87, #82, #120 ) ;
#45 = CC_DESIGN_PERSON_AND_ORGANIZATION_ASSIGNMENT ( #168, #67, ( #12 ) ) ;
#46 = DIRECTION ( 'NONE',  ( 0.0000000000000000000, 0.0000000000000000000, 1.000000000000000000 ) ) ;
#47 = PERSON_AND_ORGANIZATION ( #131, #118 ) ;
#48 = ORIENTED_EDGE ( 'NONE', *, *, #93, .F. ) ;
#49 = VERTEX_POINT ( 'NONE', #57 ) ;
#50 = AXIS2_PLACEMENT_3D ( 'NONE', #8, #88, #5 ) ;
#51 = PERSON_AND_ORGANIZATION_ROLE ( 'classification_officer' ) ;
#52 = LOCAL_TIME ( 14, 17, 22.00000000000000000, #175 ) ;
#53 = CLOSED_SHELL ( 'NONE', ( #162, #77, #160, #75 ) ) ;
#54 = APPLICATION_CONTEXT ( 'configuration controlled 3d designs of mechanical parts and assemblies' ) ;
#55 = UNCERTAINTY_MEASURE_WITH_UNIT (LENGTH_MEASURE( 1.000000000000000100E-005 ), #83, 'distance_accuracy_value', 'NONE');
#56 = SECURITY_CLASSIFICATION ( '', '', #152 ) ;
#57 = CARTESIAN_POINT ( 'NONE',  ( 0.0000000000000000000, 0.0000000000000000000, 25.00000000000000000 ) ) ;
#58 = DIRECTION ( 'NONE',  ( 0.0000000000000000000, 0.0000000000000000000, -1.000000000000000000 ) ) ;
#59 = DIRECTION ( 'NONE',  ( 1.000000000000000000, 0.0000000000000000000, 0.0000000000000000000 ) ) ;
#60 =( NAMED_UNIT ( * ) PLANE_ANGLE_UNIT ( ) SI_UNIT ( $, .RADIAN. ) );
#61 = FACE_OUTER_BOUND ( 'NONE', #81, .T. ) ;
#62 = CYLINDRICAL_SURFACE ( 'NONE', #132, 25.00000000000000000 ) ;
#63 = CC_DESIGN_PERSON_AND_ORGANIZATION_ASSIGNMENT ( #109, #51, ( #56 ) ) ;
#64 = APPROVAL ( #91, 'UNSPECIFIED' ) ;
#65 = CC_DESIGN_PERSON_AND_ORGANIZATION_ASSIGNMENT ( #47, #96, ( #127 ) ) ;
#66 = FACE_OUTER_BOUND ( 'NONE', #126, .T. ) ;
#67 = PERSON_AND_ORGANIZATION_ROLE ( 'design_supplier' ) ;
#68 = ADVANCED_BREP_SHAPE_REPRESENTATION ( 'Web Model 68740_62646', ( #14, #174 ), #29 ) ;
#69 = COORDINATED_UNIVERSAL_TIME_OFFSET ( 5, 0, .BEHIND. ) ;
#70 = CC_DESIGN_APPROVAL ( #64, ( #127 ) ) ;
#71 = ORIENTED_EDGE ( 'NONE', *, *, #79, .T. ) ;
#72 = DIRECTION ( 'NONE',  ( 1.000000000000000000, 0.0000000000000000000, 0.0000000000000000000 ) ) ;
#73 = SHAPE_DEFINITION_REPRESENTATION ( #166, #68 ) ;
#74 = LOCAL_TIME ( 14, 17, 22.00000000000000000, #92 ) ;
#75 = ADVANCED_FACE ( 'NONE', ( #148 ), #41, .F. ) ;
#76 = CC_DESIGN_DATE_AND_TIME_ASSIGNMENT ( #16, #143, ( #56 ) ) ;
#77 = ADVANCED_FACE ( 'NONE', ( #66 ), #11, .T. ) ;
#78 = COORDINATED_UNIVERSAL_TIME_OFFSET ( 5, 0, .BEHIND. ) ;
#79 = EDGE_CURVE ( 'NONE', #157, #114, #113, .T. ) ;
#80 = PERSON_AND_ORGANIZATION ( #131, #118 ) ;
#81 = EDGE_LOOP ( 'NONE', ( #4, #71 ) ) ;
#82 = DIRECTION ( 'NONE',  ( 1.000000000000000000, 0.0000000000000000000, 0.0000000000000000000 ) ) ;
#83 =( LENGTH_UNIT ( ) NAMED_UNIT ( * ) SI_UNIT ( .MILLI., .METRE. ) );
#84 = CIRCLE ( 'NONE', #95, 25.00000000000000000 ) ;
#85 = CALENDAR_DATE ( 2017, 6, 3 ) ;
#86 = APPROVAL ( #36, 'UNSPECIFIED' ) ;
#87 = CARTESIAN_POINT ( 'NONE',  ( 0.0000000000000000000, 0.0000000000000000000, 0.0000000000000000000 ) ) ;
#88 = DIRECTION ( 'NONE',  ( 1.000000000000000000, 0.0000000000000000000, 0.0000000000000000000 ) ) ;
#89 = AXIS2_PLACEMENT_3D ( 'NONE', #134, #121, #46 ) ;
#90 = ORIENTED_EDGE ( 'NONE', *, *, #79, .F. ) ;
#91 = APPROVAL_STATUS ( 'not_yet_approved' ) ;
#92 = COORDINATED_UNIVERSAL_TIME_OFFSET ( 5, 0, .BEHIND. ) ;
#93 = EDGE_CURVE ( 'NONE', #157, #6, #40, .T. ) ;
#94 = CC_DESIGN_APPROVAL ( #86, ( #56 ) ) ;
#95 = AXIS2_PLACEMENT_3D ( 'NONE', #18, #72, #106 ) ;
#96 = PERSON_AND_ORGANIZATION_ROLE ( 'creator' ) ;
#97 = ORIENTED_EDGE ( 'NONE', *, *, #165, .F. ) ;
#98 = DIRECTION ( 'NONE',  ( 1.000000000000000000, 0.0000000000000000000, 0.0000000000000000000 ) ) ;
#99 = APPROVAL_PERSON_ORGANIZATION ( #171, #20, #167 ) ;
#100 = EDGE_CURVE ( 'NONE', #49, #6, #13, .T. ) ;
#101 = EDGE_CURVE ( 'NONE', #114, #157, #84, .T. ) ;
#102 = CARTESIAN_POINT ( 'NONE',  ( 0.0000000000000000000, 0.0000000000000000000, 0.0000000000000000000 ) ) ;
#103 = CALENDAR_DATE ( 2017, 6, 3 ) ;
#104 = DIRECTION ( 'NONE',  ( -1.000000000000000000, -0.0000000000000000000, -0.0000000000000000000 ) ) ;
#105 = CC_DESIGN_SECURITY_CLASSIFICATION ( #56, ( #12 ) ) ;
#106 = DIRECTION ( 'NONE',  ( 0.0000000000000000000, 0.0000000000000000000, -1.000000000000000000 ) ) ;
#107 = PERSON_AND_ORGANIZATION_ROLE ( 'creator' ) ;
#108 = CARTESIAN_POINT ( 'NONE',  ( 3.000000000000000000, 0.0000000000000000000, 0.0000000000000000000 ) ) ;
#109 = PERSON_AND_ORGANIZATION ( #131, #118 ) ;
#110 = DATE_AND_TIME ( #85, #52 ) ;
#111 = AXIS2_PLACEMENT_3D ( 'NONE', #17, #98, #2 ) ;
#112 = EDGE_CURVE ( 'NONE', #114, #49, #34, .T. ) ;
#113 = CIRCLE ( 'NONE', #50, 25.00000000000000000 ) ;
#114 = VERTEX_POINT ( 'NONE', #137 ) ;
#115 = APPLICATION_PROTOCOL_DEFINITION ( 'international standard', 'config_control_design', 1994, #25 ) ;
#116 = APPROVAL_PERSON_ORGANIZATION ( #149, #86, #128 ) ;
#117 = PRODUCT_RELATED_PRODUCT_CATEGORY ( 'detail', '', ( #28 ) ) ;
#118 = ORGANIZATION ( 'UNSPECIFIED', 'UNSPECIFIED', '' ) ;
#119 = ORIENTED_EDGE ( 'NONE', *, *, #112, .T. ) ;
#120 = DIRECTION ( 'NONE',  ( 0.0000000000000000000, 0.0000000000000000000, -1.000000000000000000 ) ) ;
#121 = DIRECTION ( 'NONE',  ( -1.000000000000000000, -0.0000000000000000000, -0.0000000000000000000 ) ) ;
#122 = PLANE ( 'NONE',  #141 ) ;
#123 = EDGE_LOOP ( 'NONE', ( #35, #97 ) ) ;
#124 = APPROVAL_DATE_TIME ( #32, #86 ) ;
#125 = COORDINATED_UNIVERSAL_TIME_OFFSET ( 5, 0, .BEHIND. ) ;
#126 = EDGE_LOOP ( 'NONE', ( #48, #155, #119, #19 ) ) ;
#127 = PRODUCT_DEFINITION ( 'UNKNOWN', '', #12, #170 ) ;
#128 = APPROVAL_ROLE ( '' ) ;
#129 = PERSON_AND_ORGANIZATION_ROLE ( 'design_owner' ) ;
#130 = CIRCLE ( 'NONE', #111, 25.00000000000000000 ) ;
#131 = PERSON ( 'UNSPECIFIED', 'UNSPECIFIED', 'UNSPECIFIED', ('UNSPECIFIED'), ('UNSPECIFIED'), ('UNSPECIFIED') ) ;
#132 = AXIS2_PLACEMENT_3D ( 'NONE', #108, #38, #173 ) ;
#133 = AXIS2_PLACEMENT_3D ( 'NONE', #102, #7, #58 ) ;
#134 = CARTESIAN_POINT ( 'NONE',  ( 3.000000000000000000, 0.0000000000000000000, 0.0000000000000000000 ) ) ;
#135 = APPROVAL_DATE_TIME ( #39, #20 ) ;
#136 = CARTESIAN_POINT ( 'NONE',  ( 3.000000000000000000, 0.0000000000000000000, 25.00000000000000000 ) ) ;
#137 = CARTESIAN_POINT ( 'NONE',  ( 3.000000000000000000, 0.0000000000000000000, 25.00000000000000000 ) ) ;
#138 = ORIENTED_EDGE ( 'NONE', *, *, #93, .T. ) ;
#139 = CARTESIAN_POINT ( 'NONE',  ( 0.0000000000000000000, 0.0000000000000000000, 0.0000000000000000000 ) ) ;
#140 = ORIENTED_EDGE ( 'NONE', *, *, #112, .F. ) ;
#141 = AXIS2_PLACEMENT_3D ( 'NONE', #9, #59, #161 ) ;
#142 = FACE_OUTER_BOUND ( 'NONE', #151, .T. ) ;
#143 = DATE_TIME_ROLE ( 'classification_date' ) ;
#144 = DIRECTION ( 'NONE',  ( 1.000000000000000000, 0.0000000000000000000, 0.0000000000000000000 ) ) ;
#145 = APPROVAL_DATE_TIME ( #21, #64 ) ;
#146 = CARTESIAN_POINT ( 'NONE',  ( 3.000000000000000000, 3.061616997868383000E-015, -25.00000000000000000 ) ) ;
#147 = PERSON_AND_ORGANIZATION ( #131, #118 ) ;
#148 = FACE_OUTER_BOUND ( 'NONE', #123, .T. ) ;
#149 = PERSON_AND_ORGANIZATION ( #131, #118 ) ;
#150 = CALENDAR_DATE ( 2017, 6, 3 ) ;
#151 = EDGE_LOOP ( 'NONE', ( #90, #138, #26, #140 ) ) ;
#152 = SECURITY_CLASSIFICATION_LEVEL ( 'unclassified' ) ;
#153 = APPLICATION_PROTOCOL_DEFINITION ( 'international standard', 'config_control_design', 1994, #54 ) ;
#154 = APPROVAL_PERSON_ORGANIZATION ( #80, #64, #15 ) ;
#155 = ORIENTED_EDGE ( 'NONE', *, *, #101, .F. ) ;
#156 = LOCAL_TIME ( 14, 17, 22.00000000000000000, #78 ) ;
#157 = VERTEX_POINT ( 'NONE', #146 ) ;
#158 = VECTOR ( 'NONE', #172, 1000.000000000000000 ) ;
#159 = LOCAL_TIME ( 14, 17, 22.00000000000000000, #125 ) ;
#160 = ADVANCED_FACE ( 'NONE', ( #61 ), #122, .T. ) ;
#161 = DIRECTION ( 'NONE',  ( 0.0000000000000000000, 0.0000000000000000000, -1.000000000000000000 ) ) ;
#162 = ADVANCED_FACE ( 'NONE', ( #142 ), #62, .T. ) ;
#163 = CALENDAR_DATE ( 2017, 6, 3 ) ;
#164 = PERSON_AND_ORGANIZATION ( #131, #118 ) ;
#165 = EDGE_CURVE ( 'NONE', #6, #49, #130, .T. ) ;
#166 = PRODUCT_DEFINITION_SHAPE ( 'NONE', 'NONE',  #127 ) ;
#167 = APPROVAL_ROLE ( '' ) ;
#168 = PERSON_AND_ORGANIZATION ( #131, #118 ) ;
#169 =( NAMED_UNIT ( * ) SI_UNIT ( $, .STERADIAN. ) SOLID_ANGLE_UNIT ( ) );
#170 = DESIGN_CONTEXT ( 'detailed design', #25, 'design' ) ;
#171 = PERSON_AND_ORGANIZATION ( #131, #118 ) ;
#172 = DIRECTION ( 'NONE',  ( -1.000000000000000000, -0.0000000000000000000, -0.0000000000000000000 ) ) ;
#173 = DIRECTION ( 'NONE',  ( 0.0000000000000000000, 0.0000000000000000000, 1.000000000000000000 ) ) ;
#174 = AXIS2_PLACEMENT_3D ( 'NONE', #139, #31, #144 ) ;
#175 = COORDINATED_UNIVERSAL_TIME_OFFSET ( 5, 0, .BEHIND. ) ;
ENDSEC;
END-ISO-10303-21;
