ISO-10303-21;
HEADER;
FILE_DESCRIPTION (( 'STEP AP203' ),
    '1' );
FILE_NAME ('Web Model 68498.STEP',
    '2017-02-01T13:22:14',
    ( '' ),
    ( '' ),
    'SwSTEP 2.0',
    'SolidWorks 2016',
    '' );
FILE_SCHEMA (( 'CONFIG_CONTROL_DESIGN' ));
ENDSEC;

DATA;
#1 = CARTESIAN_POINT ( 'NONE',  ( 0.0000000000000000000, 0.0000000000000000000, 1.500000000000000000 ) ) ;
#2 = CIRCLE ( 'NONE', #127, 5.000000000000000000 ) ;
#3 = FACE_OUTER_BOUND ( 'NONE', #155, .T. ) ;
#4 = COORDINATED_UNIVERSAL_TIME_OFFSET ( 5, 0, .BEHIND. ) ;
#5 = EDGE_CURVE ( 'NONE', #43, #131, #2, .T. ) ;
#6 = LOCAL_TIME ( 8, 22, 14.00000000000000000, #168 ) ;
#7 = APPROVAL_PERSON_ORGANIZATION ( #100, #119, #11 ) ;
#8 = DIRECTION ( 'NONE',  ( 1.000000000000000000, 0.0000000000000000000, 0.0000000000000000000 ) ) ;
#9 = DIRECTION ( 'NONE',  ( 0.0000000000000000000, 0.0000000000000000000, 1.000000000000000000 ) ) ;
#10 = PERSON_AND_ORGANIZATION_ROLE ( 'design_supplier' ) ;
#11 = APPROVAL_ROLE ( '' ) ;
#12 = EDGE_LOOP ( 'NONE', ( #16, #132 ) ) ;
#13 = LOCAL_TIME ( 8, 22, 14.00000000000000000, #55 ) ;
#14 = PERSON_AND_ORGANIZATION ( #106, #162 ) ;
#15 = EDGE_CURVE ( 'NONE', #90, #38, #174, .T. ) ;
#16 = ORIENTED_EDGE ( 'NONE', *, *, #30, .T. ) ;
#17 = SECURITY_CLASSIFICATION ( '', '', #44 ) ;
#18 = LOCAL_TIME ( 8, 22, 14.00000000000000000, #63 ) ;
#19 = CARTESIAN_POINT ( 'NONE',  ( 5.000000000000000000, 6.123233995736766300E-016, 1.500000000000000000 ) ) ;
#20 = PLANE ( 'NONE',  #65 ) ;
#21 = CC_DESIGN_APPROVAL ( #119, ( #113 ) ) ;
#22 = CARTESIAN_POINT ( 'NONE',  ( -5.000000000000000000, 0.0000000000000000000, 1.500000000000000000 ) ) ;
#23 = SHAPE_DEFINITION_REPRESENTATION ( #99, #56 ) ;
#24 = DIRECTION ( 'NONE',  ( -0.0000000000000000000, -0.0000000000000000000, -1.000000000000000000 ) ) ;
#25 = CARTESIAN_POINT ( 'NONE',  ( 0.0000000000000000000, 0.0000000000000000000, 0.0000000000000000000 ) ) ;
#26 = DATE_TIME_ROLE ( 'creation_date' ) ;
#27 = DATE_AND_TIME ( #118, #154 ) ;
#28 = CIRCLE ( 'NONE', #39, 5.000000000000000000 ) ;
#29 = DATE_TIME_ROLE ( 'classification_date' ) ;
#30 = EDGE_CURVE ( 'NONE', #131, #43, #28, .T. ) ;
#31 = CC_DESIGN_PERSON_AND_ORGANIZATION_ASSIGNMENT ( #94, #46, ( #148 ) ) ;
#32 = APPROVAL_ROLE ( '' ) ;
#33 = APPROVAL_PERSON_ORGANIZATION ( #79, #135, #146 ) ;
#34 = AXIS2_PLACEMENT_3D ( 'NONE', #37, #152, #60 ) ;
#35 = APPROVAL_PERSON_ORGANIZATION ( #138, #78, #32 ) ;
#36 = DIRECTION ( 'NONE',  ( -1.000000000000000000, 0.0000000000000000000, 0.0000000000000000000 ) ) ;
#37 = CARTESIAN_POINT ( 'NONE',  ( 0.0000000000000000000, 0.0000000000000000000, 0.0000000000000000000 ) ) ;
#38 = VERTEX_POINT ( 'NONE', #52 ) ;
#39 = AXIS2_PLACEMENT_3D ( 'NONE', #72, #51, #8 ) ;
#40 = PRODUCT_RELATED_PRODUCT_CATEGORY ( 'detail', '', ( #148 ) ) ;
#41 = DATE_AND_TIME ( #153, #169 ) ;
#42 = EDGE_CURVE ( 'NONE', #131, #38, #91, .T. ) ;
#43 = VERTEX_POINT ( 'NONE', #19 ) ;
#44 = SECURITY_CLASSIFICATION_LEVEL ( 'unclassified' ) ;
#45 = CC_DESIGN_PERSON_AND_ORGANIZATION_ASSIGNMENT ( #48, #75, ( #17 ) ) ;
#46 = PERSON_AND_ORGANIZATION_ROLE ( 'design_owner' ) ;
#47 = CIRCLE ( 'NONE', #137, 5.000000000000000000 ) ;
#48 = PERSON_AND_ORGANIZATION ( #106, #162 ) ;
#49 = PERSON_AND_ORGANIZATION ( #106, #162 ) ;
#50 = ORIENTED_EDGE ( 'NONE', *, *, #82, .F. ) ;
#51 = DIRECTION ( 'NONE',  ( 0.0000000000000000000, 0.0000000000000000000, 1.000000000000000000 ) ) ;
#52 = CARTESIAN_POINT ( 'NONE',  ( -5.000000000000000000, 0.0000000000000000000, 0.0000000000000000000 ) ) ;
#53 = ORIENTED_EDGE ( 'NONE', *, *, #15, .T. ) ;
#54 = CC_DESIGN_APPROVAL ( #135, ( #17 ) ) ;
#55 = COORDINATED_UNIVERSAL_TIME_OFFSET ( 5, 0, .BEHIND. ) ;
#56 = ADVANCED_BREP_SHAPE_REPRESENTATION ( 'Web Model 68498', ( #66, #34 ), #114 ) ;
#57 = APPROVAL_DATE_TIME ( #95, #119 ) ;
#58 = DIRECTION ( 'NONE',  ( 1.000000000000000000, 0.0000000000000000000, 0.0000000000000000000 ) ) ;
#59 = DIRECTION ( 'NONE',  ( 0.0000000000000000000, 0.0000000000000000000, 1.000000000000000000 ) ) ;
#60 = DIRECTION ( 'NONE',  ( 1.000000000000000000, 0.0000000000000000000, 0.0000000000000000000 ) ) ;
#61 = CYLINDRICAL_SURFACE ( 'NONE', #122, 5.000000000000000000 ) ;
#62 = MECHANICAL_CONTEXT ( 'NONE', #173, 'mechanical' ) ;
#63 = COORDINATED_UNIVERSAL_TIME_OFFSET ( 5, 0, .BEHIND. ) ;
#64 = CYLINDRICAL_SURFACE ( 'NONE', #150, 5.000000000000000000 ) ;
#65 = AXIS2_PLACEMENT_3D ( 'NONE', #145, #87, #101 ) ;
#66 = MANIFOLD_SOLID_BREP ( 'Extrude1', #166 ) ;
#67 = CC_DESIGN_SECURITY_CLASSIFICATION ( #17, ( #113 ) ) ;
#68 = DIRECTION ( 'NONE',  ( -0.0000000000000000000, -0.0000000000000000000, -1.000000000000000000 ) ) ;
#69 =( NAMED_UNIT ( * ) SI_UNIT ( $, .STERADIAN. ) SOLID_ANGLE_UNIT ( ) );
#70 = ORIENTED_EDGE ( 'NONE', *, *, #42, .F. ) ;
#71 = CC_DESIGN_DATE_AND_TIME_ASSIGNMENT ( #156, #26, ( #84 ) ) ;
#72 = CARTESIAN_POINT ( 'NONE',  ( 0.0000000000000000000, 0.0000000000000000000, 1.500000000000000000 ) ) ;
#73 = CALENDAR_DATE ( 2017, 1, 2 ) ;
#74 = APPLICATION_PROTOCOL_DEFINITION ( 'international standard', 'config_control_design', 1994, #104 ) ;
#75 = PERSON_AND_ORGANIZATION_ROLE ( 'classification_officer' ) ;
#76 = ADVANCED_FACE ( 'NONE', ( #136 ), #20, .T. ) ;
#77 = DESIGN_CONTEXT ( 'detailed design', #104, 'design' ) ;
#78 = APPROVAL ( #133, 'UNSPECIFIED' ) ;
#79 = PERSON_AND_ORGANIZATION ( #106, #162 ) ;
#80 = DIRECTION ( 'NONE',  ( 0.0000000000000000000, 0.0000000000000000000, 1.000000000000000000 ) ) ;
#81 = ORIENTED_EDGE ( 'NONE', *, *, #107, .F. ) ;
#82 = EDGE_CURVE ( 'NONE', #38, #90, #47, .T. ) ;
#83 = DIRECTION ( 'NONE',  ( 0.0000000000000000000, 0.0000000000000000000, 1.000000000000000000 ) ) ;
#84 = PRODUCT_DEFINITION ( 'UNKNOWN', '', #113, #77 ) ;
#85 = LINE ( 'NONE', #175, #170 ) ;
#86 = AXIS2_PLACEMENT_3D ( 'NONE', #164, #9, #58 ) ;
#87 = DIRECTION ( 'NONE',  ( 0.0000000000000000000, 0.0000000000000000000, 1.000000000000000000 ) ) ;
#88 = PERSON_AND_ORGANIZATION ( #106, #162 ) ;
#89 = CARTESIAN_POINT ( 'NONE',  ( 0.0000000000000000000, 0.0000000000000000000, 1.500000000000000000 ) ) ;
#90 = VERTEX_POINT ( 'NONE', #125 ) ;
#91 = LINE ( 'NONE', #22, #159 ) ;
#92 = CC_DESIGN_PERSON_AND_ORGANIZATION_ASSIGNMENT ( #49, #102, ( #84 ) ) ;
#93 = EDGE_LOOP ( 'NONE', ( #98, #108, #53, #70 ) ) ;
#94 = PERSON_AND_ORGANIZATION ( #106, #162 ) ;
#95 = DATE_AND_TIME ( #163, #18 ) ;
#96 = DIRECTION ( 'NONE',  ( 1.000000000000000000, 0.0000000000000000000, 0.0000000000000000000 ) ) ;
#97 = DIRECTION ( 'NONE',  ( -0.0000000000000000000, -0.0000000000000000000, -1.000000000000000000 ) ) ;
#98 = ORIENTED_EDGE ( 'NONE', *, *, #5, .F. ) ;
#99 = PRODUCT_DEFINITION_SHAPE ( 'NONE', 'NONE',  #84 ) ;
#100 = PERSON_AND_ORGANIZATION ( #106, #162 ) ;
#101 = DIRECTION ( 'NONE',  ( 1.000000000000000000, 0.0000000000000000000, -0.0000000000000000000 ) ) ;
#102 = PERSON_AND_ORGANIZATION_ROLE ( 'creator' ) ;
#103 = ADVANCED_FACE ( 'NONE', ( #128 ), #61, .T. ) ;
#104 = APPLICATION_CONTEXT ( 'configuration controlled 3d designs of mechanical parts and assemblies' ) ;
#105 = APPROVAL_STATUS ( 'not_yet_approved' ) ;
#106 = PERSON ( 'UNSPECIFIED', 'UNSPECIFIED', 'UNSPECIFIED', ('UNSPECIFIED'), ('UNSPECIFIED'), ('UNSPECIFIED') ) ;
#107 = EDGE_CURVE ( 'NONE', #43, #90, #85, .T. ) ;
#108 = ORIENTED_EDGE ( 'NONE', *, *, #107, .T. ) ;
#109 = DIRECTION ( 'NONE',  ( -0.0000000000000000000, -0.0000000000000000000, -1.000000000000000000 ) ) ;
#110 = APPROVAL_DATE_TIME ( #41, #135 ) ;
#111 = APPROVAL_DATE_TIME ( #121, #78 ) ;
#112 = CARTESIAN_POINT ( 'NONE',  ( 0.0000000000000000000, 0.0000000000000000000, 0.0000000000000000000 ) ) ;
#113 = PRODUCT_DEFINITION_FORMATION_WITH_SPECIFIED_SOURCE ( 'ANY', '', #148, .NOT_KNOWN. ) ;
#114 =( GEOMETRIC_REPRESENTATION_CONTEXT ( 3 ) GLOBAL_UNCERTAINTY_ASSIGNED_CONTEXT ( ( #140 ) ) GLOBAL_UNIT_ASSIGNED_CONTEXT ( ( #139, #126, #69 ) ) REPRESENTATION_CONTEXT ( 'NONE', 'WORKASPACE' ) );
#115 = CC_DESIGN_APPROVAL ( #78, ( #84 ) ) ;
#116 = CC_DESIGN_PERSON_AND_ORGANIZATION_ASSIGNMENT ( #14, #117, ( #113 ) ) ;
#117 = PERSON_AND_ORGANIZATION_ROLE ( 'creator' ) ;
#118 = CALENDAR_DATE ( 2017, 1, 2 ) ;
#119 = APPROVAL ( #130, 'UNSPECIFIED' ) ;
#120 = ORIENTED_EDGE ( 'NONE', *, *, #30, .F. ) ;
#121 = DATE_AND_TIME ( #158, #13 ) ;
#122 = AXIS2_PLACEMENT_3D ( 'NONE', #89, #24, #36 ) ;
#123 = DIRECTION ( 'NONE',  ( 1.000000000000000000, 0.0000000000000000000, 0.0000000000000000000 ) ) ;
#124 = ORIENTED_EDGE ( 'NONE', *, *, #42, .T. ) ;
#125 = CARTESIAN_POINT ( 'NONE',  ( 5.000000000000000000, 6.123233995736766300E-016, 0.0000000000000000000 ) ) ;
#126 =( NAMED_UNIT ( * ) PLANE_ANGLE_UNIT ( ) SI_UNIT ( $, .RADIAN. ) );
#127 = AXIS2_PLACEMENT_3D ( 'NONE', #1, #83, #96 ) ;
#128 = FACE_OUTER_BOUND ( 'NONE', #129, .T. ) ;
#129 = EDGE_LOOP ( 'NONE', ( #81, #120, #124, #167 ) ) ;
#130 = APPROVAL_STATUS ( 'not_yet_approved' ) ;
#131 = VERTEX_POINT ( 'NONE', #165 ) ;
#132 = ORIENTED_EDGE ( 'NONE', *, *, #5, .T. ) ;
#133 = APPROVAL_STATUS ( 'not_yet_approved' ) ;
#134 = ADVANCED_FACE ( 'NONE', ( #3 ), #160, .F. ) ;
#135 = APPROVAL ( #105, 'UNSPECIFIED' ) ;
#136 = FACE_OUTER_BOUND ( 'NONE', #12, .T. ) ;
#137 = AXIS2_PLACEMENT_3D ( 'NONE', #25, #59, #123 ) ;
#138 = PERSON_AND_ORGANIZATION ( #106, #162 ) ;
#139 =( LENGTH_UNIT ( ) NAMED_UNIT ( * ) SI_UNIT ( .MILLI., .METRE. ) );
#140 = UNCERTAINTY_MEASURE_WITH_UNIT (LENGTH_MEASURE( 1.000000000000000100E-005 ), #139, 'distance_accuracy_value', 'NONE');
#141 = CARTESIAN_POINT ( 'NONE',  ( 0.0000000000000000000, 0.0000000000000000000, 1.500000000000000000 ) ) ;
#142 = APPLICATION_PROTOCOL_DEFINITION ( 'international standard', 'config_control_design', 1994, #173 ) ;
#143 = FACE_OUTER_BOUND ( 'NONE', #93, .T. ) ;
#144 = DIRECTION ( 'NONE',  ( 1.000000000000000000, 0.0000000000000000000, -0.0000000000000000000 ) ) ;
#145 = CARTESIAN_POINT ( 'NONE',  ( 0.0000000000000000000, 0.0000000000000000000, 1.500000000000000000 ) ) ;
#146 = APPROVAL_ROLE ( '' ) ;
#147 = ADVANCED_FACE ( 'NONE', ( #143 ), #64, .T. ) ;
#148 = PRODUCT ( 'Web Model 68498', 'Web Model 68498', '', ( #62 ) ) ;
#149 = CC_DESIGN_PERSON_AND_ORGANIZATION_ASSIGNMENT ( #88, #10, ( #113 ) ) ;
#150 = AXIS2_PLACEMENT_3D ( 'NONE', #141, #109, #171 ) ;
#151 = CC_DESIGN_DATE_AND_TIME_ASSIGNMENT ( #27, #29, ( #17 ) ) ;
#152 = DIRECTION ( 'NONE',  ( 0.0000000000000000000, 0.0000000000000000000, 1.000000000000000000 ) ) ;
#153 = CALENDAR_DATE ( 2017, 1, 2 ) ;
#154 = LOCAL_TIME ( 8, 22, 14.00000000000000000, #4 ) ;
#155 = EDGE_LOOP ( 'NONE', ( #50, #161 ) ) ;
#156 = DATE_AND_TIME ( #73, #6 ) ;
#157 = AXIS2_PLACEMENT_3D ( 'NONE', #112, #80, #144 ) ;
#158 = CALENDAR_DATE ( 2017, 1, 2 ) ;
#159 = VECTOR ( 'NONE', #97, 1000.000000000000000 ) ;
#160 = PLANE ( 'NONE',  #157 ) ;
#161 = ORIENTED_EDGE ( 'NONE', *, *, #15, .F. ) ;
#162 = ORGANIZATION ( 'UNSPECIFIED', 'UNSPECIFIED', '' ) ;
#163 = CALENDAR_DATE ( 2017, 1, 2 ) ;
#164 = CARTESIAN_POINT ( 'NONE',  ( 0.0000000000000000000, 0.0000000000000000000, 0.0000000000000000000 ) ) ;
#165 = CARTESIAN_POINT ( 'NONE',  ( -5.000000000000000000, 0.0000000000000000000, 1.500000000000000000 ) ) ;
#166 = CLOSED_SHELL ( 'NONE', ( #147, #103, #76, #134 ) ) ;
#167 = ORIENTED_EDGE ( 'NONE', *, *, #82, .T. ) ;
#168 = COORDINATED_UNIVERSAL_TIME_OFFSET ( 5, 0, .BEHIND. ) ;
#169 = LOCAL_TIME ( 8, 22, 14.00000000000000000, #172 ) ;
#170 = VECTOR ( 'NONE', #68, 1000.000000000000000 ) ;
#171 = DIRECTION ( 'NONE',  ( -1.000000000000000000, 0.0000000000000000000, 0.0000000000000000000 ) ) ;
#172 = COORDINATED_UNIVERSAL_TIME_OFFSET ( 5, 0, .BEHIND. ) ;
#173 = APPLICATION_CONTEXT ( 'configuration controlled 3d designs of mechanical parts and assemblies' ) ;
#174 = CIRCLE ( 'NONE', #86, 5.000000000000000000 ) ;
#175 = CARTESIAN_POINT ( 'NONE',  ( 5.000000000000000000, 6.123233995736766300E-016, 1.500000000000000000 ) ) ;
ENDSEC;
END-ISO-10303-21;
