ISO-10303-21;
HEADER;
FILE_DESCRIPTION (( 'STEP AP203' ),
    '1' );
FILE_NAME ('Web Model 89566.STEP',
    '2017-02-01T16:30:53',
    ( '' ),
    ( '' ),
    'SwSTEP 2.0',
    'SolidWorks 2016',
    '' );
FILE_SCHEMA (( 'CONFIG_CONTROL_DESIGN' ));
ENDSEC;

DATA;
#1 = PRODUCT_DEFINITION_FORMATION_WITH_SPECIFIED_SOURCE ( 'ANY', '', #115, .NOT_KNOWN. ) ;
#2 = CARTESIAN_POINT ( 'NONE',  ( 3.000000000000000000, 1.836970198721029600E-015, -15.00000000000000000 ) ) ;
#3 = APPROVAL_DATE_TIME ( #141, #158 ) ;
#4 = CC_DESIGN_DATE_AND_TIME_ASSIGNMENT ( #15, #69, ( #91 ) ) ;
#5 = APPLICATION_CONTEXT ( 'configuration controlled 3d designs of mechanical parts and assemblies' ) ;
#6 =( GEOMETRIC_REPRESENTATION_CONTEXT ( 3 ) GLOBAL_UNCERTAINTY_ASSIGNED_CONTEXT ( ( #126 ) ) GLOBAL_UNIT_ASSIGNED_CONTEXT ( ( #121, #138, #80 ) ) REPRESENTATION_CONTEXT ( 'NONE', 'WORKASPACE' ) );
#7 = ORIENTED_EDGE ( 'NONE', *, *, #103, .F. ) ;
#8 = CARTESIAN_POINT ( 'NONE',  ( 3.000000000000000000, 0.0000000000000000000, 0.0000000000000000000 ) ) ;
#9 = PERSON_AND_ORGANIZATION ( #112, #47 ) ;
#10 = DIRECTION ( 'NONE',  ( 0.0000000000000000000, 0.0000000000000000000, -1.000000000000000000 ) ) ;
#11 = DATE_AND_TIME ( #163, #94 ) ;
#12 = COORDINATED_UNIVERSAL_TIME_OFFSET ( 5, 0, .BEHIND. ) ;
#13 = PERSON_AND_ORGANIZATION ( #112, #47 ) ;
#14 = PRODUCT_DEFINITION ( 'UNKNOWN', '', #1, #130 ) ;
#15 = DATE_AND_TIME ( #119, #144 ) ;
#16 = DIRECTION ( 'NONE',  ( 0.0000000000000000000, 0.0000000000000000000, 1.000000000000000000 ) ) ;
#17 = DIRECTION ( 'NONE',  ( 0.0000000000000000000, 0.0000000000000000000, -1.000000000000000000 ) ) ;
#18 = FACE_OUTER_BOUND ( 'NONE', #128, .T. ) ;
#19 = PERSON_AND_ORGANIZATION ( #112, #47 ) ;
#20 = CARTESIAN_POINT ( 'NONE',  ( 0.0000000000000000000, 0.0000000000000000000, 0.0000000000000000000 ) ) ;
#21 = DIRECTION ( 'NONE',  ( 1.000000000000000000, 0.0000000000000000000, 0.0000000000000000000 ) ) ;
#22 = APPLICATION_PROTOCOL_DEFINITION ( 'international standard', 'config_control_design', 1994, #82 ) ;
#23 = ORIENTED_EDGE ( 'NONE', *, *, #140, .T. ) ;
#24 = ORIENTED_EDGE ( 'NONE', *, *, #93, .T. ) ;
#25 = CARTESIAN_POINT ( 'NONE',  ( 3.000000000000000000, 0.0000000000000000000, 15.00000000000000000 ) ) ;
#26 = CARTESIAN_POINT ( 'NONE',  ( 0.0000000000000000000, 0.0000000000000000000, 0.0000000000000000000 ) ) ;
#27 = CARTESIAN_POINT ( 'NONE',  ( 0.0000000000000000000, 0.0000000000000000000, 0.0000000000000000000 ) ) ;
#28 = CARTESIAN_POINT ( 'NONE',  ( 3.000000000000000000, 0.0000000000000000000, 0.0000000000000000000 ) ) ;
#29 = DIRECTION ( 'NONE',  ( 0.0000000000000000000, 0.0000000000000000000, 1.000000000000000000 ) ) ;
#30 = ADVANCED_FACE ( 'NONE', ( #89 ), #66, .F. ) ;
#31 = PERSON_AND_ORGANIZATION_ROLE ( 'creator' ) ;
#32 = AXIS2_PLACEMENT_3D ( 'NONE', #20, #21, #17 ) ;
#33 = EDGE_LOOP ( 'NONE', ( #23, #84 ) ) ;
#34 = ADVANCED_BREP_SHAPE_REPRESENTATION ( 'Web Model 89566', ( #41, #134 ), #6 ) ;
#35 = COORDINATED_UNIVERSAL_TIME_OFFSET ( 5, 0, .BEHIND. ) ;
#36 = CC_DESIGN_DATE_AND_TIME_ASSIGNMENT ( #11, #46, ( #14 ) ) ;
#37 = EDGE_LOOP ( 'NONE', ( #104, #24, #142, #51 ) ) ;
#38 = COORDINATED_UNIVERSAL_TIME_OFFSET ( 5, 0, .BEHIND. ) ;
#39 = VERTEX_POINT ( 'NONE', #25 ) ;
#40 = APPROVAL_ROLE ( '' ) ;
#41 = MANIFOLD_SOLID_BREP ( 'Extrude1', #129 ) ;
#42 = DIRECTION ( 'NONE',  ( 1.000000000000000000, 0.0000000000000000000, 0.0000000000000000000 ) ) ;
#43 = CIRCLE ( 'NONE', #164, 15.00000000000000000 ) ;
#44 = LOCAL_TIME ( 11, 30, 53.00000000000000000, #77 ) ;
#45 = DIRECTION ( 'NONE',  ( 0.0000000000000000000, 0.0000000000000000000, -1.000000000000000000 ) ) ;
#46 = DATE_TIME_ROLE ( 'creation_date' ) ;
#47 = ORGANIZATION ( 'UNSPECIFIED', 'UNSPECIFIED', '' ) ;
#48 = CC_DESIGN_APPROVAL ( #158, ( #14 ) ) ;
#49 = EDGE_CURVE ( 'NONE', #67, #65, #171, .T. ) ;
#50 = APPROVAL ( #139, 'UNSPECIFIED' ) ;
#51 = ORIENTED_EDGE ( 'NONE', *, *, #81, .F. ) ;
#52 = ORIENTED_EDGE ( 'NONE', *, *, #49, .T. ) ;
#53 = CARTESIAN_POINT ( 'NONE',  ( 3.000000000000000000, 0.0000000000000000000, 0.0000000000000000000 ) ) ;
#54 = ADVANCED_FACE ( 'NONE', ( #92 ), #117, .T. ) ;
#55 = CC_DESIGN_PERSON_AND_ORGANIZATION_ASSIGNMENT ( #19, #31, ( #14 ) ) ;
#56 = CARTESIAN_POINT ( 'NONE',  ( 3.000000000000000000, 1.836970198721029600E-015, -15.00000000000000000 ) ) ;
#57 = DIRECTION ( 'NONE',  ( -1.000000000000000000, -0.0000000000000000000, -0.0000000000000000000 ) ) ;
#58 = PERSON_AND_ORGANIZATION_ROLE ( 'classification_officer' ) ;
#59 = AXIS2_PLACEMENT_3D ( 'NONE', #28, #60, #29 ) ;
#60 = DIRECTION ( 'NONE',  ( -1.000000000000000000, -0.0000000000000000000, -0.0000000000000000000 ) ) ;
#61 = LINE ( 'NONE', #106, #124 ) ;
#62 = PERSON_AND_ORGANIZATION ( #112, #47 ) ;
#63 = DATE_AND_TIME ( #131, #136 ) ;
#64 = CC_DESIGN_PERSON_AND_ORGANIZATION_ASSIGNMENT ( #102, #68, ( #1 ) ) ;
#65 = VERTEX_POINT ( 'NONE', #107 ) ;
#66 = PLANE ( 'NONE',  #160 ) ;
#67 = VERTEX_POINT ( 'NONE', #120 ) ;
#68 = PERSON_AND_ORGANIZATION_ROLE ( 'creator' ) ;
#69 = DATE_TIME_ROLE ( 'classification_date' ) ;
#70 = DIRECTION ( 'NONE',  ( 1.000000000000000000, 0.0000000000000000000, 0.0000000000000000000 ) ) ;
#71 = LINE ( 'NONE', #2, #145 ) ;
#72 = DIRECTION ( 'NONE',  ( 1.000000000000000000, 0.0000000000000000000, 0.0000000000000000000 ) ) ;
#73 = CIRCLE ( 'NONE', #132, 15.00000000000000000 ) ;
#74 = CYLINDRICAL_SURFACE ( 'NONE', #59, 15.00000000000000000 ) ;
#75 = CC_DESIGN_PERSON_AND_ORGANIZATION_ASSIGNMENT ( #9, #58, ( #91 ) ) ;
#76 = FACE_OUTER_BOUND ( 'NONE', #33, .T. ) ;
#77 = COORDINATED_UNIVERSAL_TIME_OFFSET ( 5, 0, .BEHIND. ) ;
#78 = PERSON_AND_ORGANIZATION ( #112, #47 ) ;
#79 = APPROVAL ( #99, 'UNSPECIFIED' ) ;
#80 =( NAMED_UNIT ( * ) SI_UNIT ( $, .STERADIAN. ) SOLID_ANGLE_UNIT ( ) );
#81 = EDGE_CURVE ( 'NONE', #39, #67, #61, .T. ) ;
#82 = APPLICATION_CONTEXT ( 'configuration controlled 3d designs of mechanical parts and assemblies' ) ;
#83 = CIRCLE ( 'NONE', #32, 15.00000000000000000 ) ;
#84 = ORIENTED_EDGE ( 'NONE', *, *, #173, .T. ) ;
#85 = CC_DESIGN_APPROVAL ( #79, ( #91 ) ) ;
#86 = VERTEX_POINT ( 'NONE', #56 ) ;
#87 = APPROVAL_DATE_TIME ( #148, #79 ) ;
#88 = CC_DESIGN_SECURITY_CLASSIFICATION ( #91, ( #1 ) ) ;
#89 = FACE_OUTER_BOUND ( 'NONE', #155, .T. ) ;
#90 = COORDINATED_UNIVERSAL_TIME_OFFSET ( 5, 0, .BEHIND. ) ;
#91 = SECURITY_CLASSIFICATION ( '', '', #137 ) ;
#92 = FACE_OUTER_BOUND ( 'NONE', #37, .T. ) ;
#93 = EDGE_CURVE ( 'NONE', #86, #65, #71, .T. ) ;
#94 = LOCAL_TIME ( 11, 30, 53.00000000000000000, #38 ) ;
#95 = DIRECTION ( 'NONE',  ( -1.000000000000000000, -0.0000000000000000000, -0.0000000000000000000 ) ) ;
#96 = DIRECTION ( 'NONE',  ( 0.0000000000000000000, 0.0000000000000000000, -1.000000000000000000 ) ) ;
#97 = LOCAL_TIME ( 11, 30, 53.00000000000000000, #12 ) ;
#98 = APPROVAL_DATE_TIME ( #63, #50 ) ;
#99 = APPROVAL_STATUS ( 'not_yet_approved' ) ;
#100 = DIRECTION ( 'NONE',  ( 1.000000000000000000, 0.0000000000000000000, 0.0000000000000000000 ) ) ;
#101 = ADVANCED_FACE ( 'NONE', ( #76 ), #113, .T. ) ;
#102 = PERSON_AND_ORGANIZATION ( #112, #47 ) ;
#103 = EDGE_CURVE ( 'NONE', #65, #67, #83, .T. ) ;
#104 = ORIENTED_EDGE ( 'NONE', *, *, #173, .F. ) ;
#105 = DIRECTION ( 'NONE',  ( 1.000000000000000000, 0.0000000000000000000, 0.0000000000000000000 ) ) ;
#106 = CARTESIAN_POINT ( 'NONE',  ( 3.000000000000000000, 0.0000000000000000000, 15.00000000000000000 ) ) ;
#107 = CARTESIAN_POINT ( 'NONE',  ( 0.0000000000000000000, 1.836970198721029600E-015, -15.00000000000000000 ) ) ;
#108 = ORIENTED_EDGE ( 'NONE', *, *, #81, .T. ) ;
#109 = APPROVAL_STATUS ( 'not_yet_approved' ) ;
#110 = DIRECTION ( 'NONE',  ( 0.0000000000000000000, 0.0000000000000000000, 1.000000000000000000 ) ) ;
#111 = PRODUCT_RELATED_PRODUCT_CATEGORY ( 'detail', '', ( #115 ) ) ;
#112 = PERSON ( 'UNSPECIFIED', 'UNSPECIFIED', 'UNSPECIFIED', ('UNSPECIFIED'), ('UNSPECIFIED'), ('UNSPECIFIED') ) ;
#113 = PLANE ( 'NONE',  #162 ) ;
#114 = APPLICATION_PROTOCOL_DEFINITION ( 'international standard', 'config_control_design', 1994, #5 ) ;
#115 = PRODUCT ( 'Web Model 89566', 'Web Model 89566', '', ( #154 ) ) ;
#116 = CALENDAR_DATE ( 2017, 1, 2 ) ;
#117 = CYLINDRICAL_SURFACE ( 'NONE', #122, 15.00000000000000000 ) ;
#118 = SHAPE_DEFINITION_REPRESENTATION ( #175, #34 ) ;
#119 = CALENDAR_DATE ( 2017, 1, 2 ) ;
#120 = CARTESIAN_POINT ( 'NONE',  ( 0.0000000000000000000, 0.0000000000000000000, 15.00000000000000000 ) ) ;
#121 =( LENGTH_UNIT ( ) NAMED_UNIT ( * ) SI_UNIT ( .MILLI., .METRE. ) );
#122 = AXIS2_PLACEMENT_3D ( 'NONE', #53, #57, #16 ) ;
#123 = DIRECTION ( 'NONE',  ( 0.0000000000000000000, 0.0000000000000000000, -1.000000000000000000 ) ) ;
#124 = VECTOR ( 'NONE', #165, 1000.000000000000000 ) ;
#125 = CC_DESIGN_APPROVAL ( #50, ( #1 ) ) ;
#126 = UNCERTAINTY_MEASURE_WITH_UNIT (LENGTH_MEASURE( 1.000000000000000100E-005 ), #121, 'distance_accuracy_value', 'NONE');
#127 = APPROVAL_ROLE ( '' ) ;
#128 = EDGE_LOOP ( 'NONE', ( #143, #166, #108, #52 ) ) ;
#129 = CLOSED_SHELL ( 'NONE', ( #54, #157, #101, #30 ) ) ;
#130 = DESIGN_CONTEXT ( 'detailed design', #5, 'design' ) ;
#131 = CALENDAR_DATE ( 2017, 1, 2 ) ;
#132 = AXIS2_PLACEMENT_3D ( 'NONE', #8, #70, #123 ) ;
#133 = PERSON_AND_ORGANIZATION ( #112, #47 ) ;
#134 = AXIS2_PLACEMENT_3D ( 'NONE', #27, #110, #100 ) ;
#135 = DIRECTION ( 'NONE',  ( 1.000000000000000000, 0.0000000000000000000, 0.0000000000000000000 ) ) ;
#136 = LOCAL_TIME ( 11, 30, 53.00000000000000000, #35 ) ;
#137 = SECURITY_CLASSIFICATION_LEVEL ( 'unclassified' ) ;
#138 =( NAMED_UNIT ( * ) PLANE_ANGLE_UNIT ( ) SI_UNIT ( $, .RADIAN. ) );
#139 = APPROVAL_STATUS ( 'not_yet_approved' ) ;
#140 = EDGE_CURVE ( 'NONE', #39, #86, #73, .T. ) ;
#141 = DATE_AND_TIME ( #116, #97 ) ;
#142 = ORIENTED_EDGE ( 'NONE', *, *, #103, .T. ) ;
#143 = ORIENTED_EDGE ( 'NONE', *, *, #93, .F. ) ;
#144 = LOCAL_TIME ( 11, 30, 53.00000000000000000, #90 ) ;
#145 = VECTOR ( 'NONE', #95, 1000.000000000000000 ) ;
#146 = PERSON_AND_ORGANIZATION ( #112, #47 ) ;
#147 = AXIS2_PLACEMENT_3D ( 'NONE', #149, #135, #96 ) ;
#148 = DATE_AND_TIME ( #174, #44 ) ;
#149 = CARTESIAN_POINT ( 'NONE',  ( 0.0000000000000000000, 0.0000000000000000000, 0.0000000000000000000 ) ) ;
#150 = CC_DESIGN_PERSON_AND_ORGANIZATION_ASSIGNMENT ( #78, #153, ( #115 ) ) ;
#151 = APPROVAL_PERSON_ORGANIZATION ( #13, #158, #40 ) ;
#152 = APPROVAL_ROLE ( '' ) ;
#153 = PERSON_AND_ORGANIZATION_ROLE ( 'design_owner' ) ;
#154 = MECHANICAL_CONTEXT ( 'NONE', #82, 'mechanical' ) ;
#155 = EDGE_LOOP ( 'NONE', ( #161, #7 ) ) ;
#156 = APPROVAL_PERSON_ORGANIZATION ( #133, #79, #127 ) ;
#157 = ADVANCED_FACE ( 'NONE', ( #18 ), #74, .T. ) ;
#158 = APPROVAL ( #109, 'UNSPECIFIED' ) ;
#159 = APPROVAL_PERSON_ORGANIZATION ( #146, #50, #152 ) ;
#160 = AXIS2_PLACEMENT_3D ( 'NONE', #26, #105, #167 ) ;
#161 = ORIENTED_EDGE ( 'NONE', *, *, #49, .F. ) ;
#162 = AXIS2_PLACEMENT_3D ( 'NONE', #169, #42, #45 ) ;
#163 = CALENDAR_DATE ( 2017, 1, 2 ) ;
#164 = AXIS2_PLACEMENT_3D ( 'NONE', #170, #72, #10 ) ;
#165 = DIRECTION ( 'NONE',  ( -1.000000000000000000, -0.0000000000000000000, -0.0000000000000000000 ) ) ;
#166 = ORIENTED_EDGE ( 'NONE', *, *, #140, .F. ) ;
#167 = DIRECTION ( 'NONE',  ( 0.0000000000000000000, 0.0000000000000000000, -1.000000000000000000 ) ) ;
#168 = PERSON_AND_ORGANIZATION_ROLE ( 'design_supplier' ) ;
#169 = CARTESIAN_POINT ( 'NONE',  ( 3.000000000000000000, 0.0000000000000000000, 0.0000000000000000000 ) ) ;
#170 = CARTESIAN_POINT ( 'NONE',  ( 3.000000000000000000, 0.0000000000000000000, 0.0000000000000000000 ) ) ;
#171 = CIRCLE ( 'NONE', #147, 15.00000000000000000 ) ;
#172 = CC_DESIGN_PERSON_AND_ORGANIZATION_ASSIGNMENT ( #62, #168, ( #1 ) ) ;
#173 = EDGE_CURVE ( 'NONE', #86, #39, #43, .T. ) ;
#174 = CALENDAR_DATE ( 2017, 1, 2 ) ;
#175 = PRODUCT_DEFINITION_SHAPE ( 'NONE', 'NONE',  #14 ) ;
ENDSEC;
END-ISO-10303-21;
