  0
SECTION
  2
HEADER
  9
$ACADVER
  1
AC1015
  9
$ACADMAINTVER
 70
    10
  9
$DWGCODEPAGE
  3
ANSI_1252
  9
$INSBASE
 10
0.0
 20
0.0
 30
0.0
  9
$EXTMIN
 10
-52.52194390341369
 20
0.4771116272831716
 30
0.0
  9
$EXTMAX
 10
-35.49194390341368
 20
11.50711162728317
 30
0.294516
  9
$LIMMIN
 10
0.0
 20
0.0
  9
$LIMMAX
 10
17.0
 20
11.0
  9
$ORTHOMODE
 70
     1
  9
$REGENMODE
 70
     1
  9
$FILLMODE
 70
     1
  9
$QTEXTMODE
 70
     0
  9
$MIRRTEXT
 70
     0
  9
$LTSCALE
 40
0.35
  9
$ATTMODE
 70
     1
  9
$TEXTSIZE
 40
0.08
  9
$TRACEWID
 40
0.05
  9
$TEXTSTYLE
  7
STANDARD
  9
$CLAYER
  8
D1
  9
$CELTYPE
  6
BYLAYER
  9
$CECOLOR
 62
   256
  9
$CELTSCALE
 40
1.0
  9
$DISPSILH
 70
     0
  9
$DIMSCALE
 40
1.0
  9
$DIMASZ
 40
0.18
  9
$DIMEXO
 40
0.04
  9
$DIMDLI
 40
0.38
  9
$DIMRND
 40
0.0
  9
$DIMDLE
 40
0.0
  9
$DIMEXE
 40
0.04
  9
$DIMTP
 40
0.0
  9
$DIMTM
 40
0.0
  9
$DIMTXT
 40
0.1
  9
$DIMCEN
 40
0.09
  9
$DIMTSZ
 40
0.0
  9
$DIMTOL
 70
     0
  9
$DIMLIM
 70
     0
  9
$DIMTIH
 70
     1
  9
$DIMTOH
 70
     1
  9
$DIMSE1
 70
     0
  9
$DIMSE2
 70
     0
  9
$DIMTAD
 70
     0
  9
$DIMZIN
 70
     0
  9
$DIMBLK
  1

  9
$DIMASO
 70
     0
  9
$DIMSHO
 70
     0
  9
$DIMPOST
  1

  9
$DIMAPOST
  1

  9
$DIMALT
 70
     0
  9
$DIMALTD
 70
     2
  9
$DIMALTF
 40
25.4
  9
$DIMLFAC
 40
1.0
  9
$DIMTOFL
 70
     0
  9
$DIMTVP
 40
0.0
  9
$DIMTIX
 70
     0
  9
$DIMSOXD
 70
     0
  9
$DIMSAH
 70
     0
  9
$DIMBLK1
  1

  9
$DIMBLK2
  1

  9
$DIMSTYLE
  2
STANDARD
  9
$DIMCLRD
 70
     0
  9
$DIMCLRE
 70
     0
  9
$DIMCLRT
 70
     0
  9
$DIMTFAC
 40
1.0
  9
$DIMGAP
 40
0.09
  9
$DIMJUST
 70
     0
  9
$DIMSD1
 70
     0
  9
$DIMSD2
 70
     0
  9
$DIMTOLJ
 70
     1
  9
$DIMTZIN
 70
     0
  9
$DIMALTZ
 70
     0
  9
$DIMALTTZ
 70
     0
  9
$DIMUPT
 70
     1
  9
$DIMDEC
 70
     3
  9
$DIMTDEC
 70
     3
  9
$DIMALTU
 70
     2
  9
$DIMALTTD
 70
     2
  9
$DIMTXSTY
  7
STANDARD
  9
$DIMAUNIT
 70
     0
  9
$DIMADEC
 70
     0
  9
$DIMALTRND
 40
0.0
  9
$DIMAZIN
 70
     0
  9
$DIMDSEP
 70
    46
  9
$DIMATFIT
 70
     0
  9
$DIMFRAC
 70
     0
  9
$DIMLDRBLK
  1

  9
$DIMLUNIT
 70
     2
  9
$DIMLWD
 70
    -2
  9
$DIMLWE
 70
    -2
  9
$DIMTMOVE
 70
     0
  9
$LUNITS
 70
     2
  9
$LUPREC
 70
     8
  9
$SKETCHINC
 40
0.005
  9
$FILLETRAD
 40
0.0
  9
$AUNITS
 70
     0
  9
$AUPREC
 70
     0
  9
$MENU
  1
C:\R13\WIN\SUPPORT\ACAD
  9
$ELEVATION
 40
0.0
  9
$PELEVATION
 40
0.0
  9
$THICKNESS
 40
0.0
  9
$LIMCHECK
 70
     0
  9
$CHAMFERA
 40
0.3
  9
$CHAMFERB
 40
0.3
  9
$CHAMFERC
 40
0.0
  9
$CHAMFERD
 40
0.0
  9
$SKPOLY
 70
     0
  9
$TDCREATE
 40
2449547.490001851
  9
$TDUCREATE
 40
2449547.698335185
  9
$TDUPDATE
 40
2453756.403254328
  9
$TDUUPDATE
 40
2453756.611587662
  9
$TDINDWG
 40
1.6017873727
  9
$TDUSRTIMER
 40
1.6017870139
  9
$USRTIMER
 70
     1
  9
$ANGBASE
 50
0.0
  9
$ANGDIR
 70
     0
  9
$PDMODE
 70
     0
  9
$PDSIZE
 40
0.0
  9
$PLINEWID
 40
0.03
  9
$SPLFRAME
 70
     0
  9
$SPLINETYPE
 70
     6
  9
$SPLINESEGS
 70
     8
  9
$HANDSEED
  5
7147
  9
$SURFTAB1
 70
     6
  9
$SURFTAB2
 70
     6
  9
$SURFTYPE
 70
     6
  9
$SURFU
 70
     6
  9
$SURFV
 70
     6
  9
$UCSBASE
  2

  9
$UCSNAME
  2

  9
$UCSORG
 10
0.0
 20
0.0
 30
0.0
  9
$UCSXDIR
 10
1.0
 20
0.0
 30
0.0
  9
$UCSYDIR
 10
0.0
 20
1.0
 30
0.0
  9
$UCSORTHOREF
  2

  9
$UCSORTHOVIEW
 70
     1
  9
$UCSORGTOP
 10
0.0
 20
0.0
 30
0.0
  9
$UCSORGBOTTOM
 10
0.0
 20
0.0
 30
0.0
  9
$UCSORGLEFT
 10
0.0
 20
0.0
 30
0.0
  9
$UCSORGRIGHT
 10
0.0
 20
0.0
 30
0.0
  9
$UCSORGFRONT
 10
0.0
 20
0.0
 30
0.0
  9
$UCSORGBACK
 10
0.0
 20
0.0
 30
0.0
  9
$PUCSBASE
  2

  9
$PUCSNAME
  2

  9
$PUCSORG
 10
0.0
 20
0.0
 30
0.0
  9
$PUCSXDIR
 10
1.0
 20
0.0
 30
0.0
  9
$PUCSYDIR
 10
0.0
 20
1.0
 30
0.0
  9
$PUCSORTHOREF
  2

  9
$PUCSORTHOVIEW
 70
     0
  9
$PUCSORGTOP
 10
0.0
 20
0.0
 30
0.0
  9
$PUCSORGBOTTOM
 10
0.0
 20
0.0
 30
0.0
  9
$PUCSORGLEFT
 10
0.0
 20
0.0
 30
0.0
  9
$PUCSORGRIGHT
 10
0.0
 20
0.0
 30
0.0
  9
$PUCSORGFRONT
 10
0.0
 20
0.0
 30
0.0
  9
$PUCSORGBACK
 10
0.0
 20
0.0
 30
0.0
  9
$USERI1
 70
     0
  9
$USERI2
 70
     0
  9
$USERI3
 70
     0
  9
$USERI4
 70
     0
  9
$USERI5
 70
     0
  9
$USERR1
 40
0.0
  9
$USERR2
 40
0.0
  9
$USERR3
 40
0.0
  9
$USERR4
 40
0.0
  9
$USERR5
 40
0.0
  9
$WORLDVIEW
 70
     1
  9
$SHADEDGE
 70
     3
  9
$SHADEDIF
 70
    70
  9
$TILEMODE
 70
     1
  9
$MAXACTVP
 70
    16
  9
$PINSBASE
 10
0.0
 20
0.0
 30
0.0
  9
$PLIMCHECK
 70
     0
  9
$PEXTMIN
 10
1.000000000000000E+20
 20
1.000000000000000E+20
 30
1.000000000000000E+20
  9
$PEXTMAX
 10
-1.000000000000000E+20
 20
-1.000000000000000E+20
 30
-1.000000000000000E+20
  9
$PLIMMIN
 10
0.0
 20
0.0
  9
$PLIMMAX
 10
12.0
 20
9.0
  9
$UNITMODE
 70
     0
  9
$VISRETAIN
 70
     0
  9
$PLINEGEN
 70
     0
  9
$PSLTSCALE
 70
     0
  9
$TREEDEPTH
 70
  3020
  9
$CMLSTYLE
  2
STANDARD
  9
$CMLJUST
 70
     0
  9
$CMLSCALE
 40
1.0
  9
$PROXYGRAPHICS
 70
     1
  9
$MEASUREMENT
 70
     0
  9
$CELWEIGHT
370
    -1
  9
$ENDCAPS
280
     0
  9
$JOINSTYLE
280
     0
  9
$LWDISPLAY
290
     0
  9
$INSUNITS
 70
     0
  9
$HYPERLINKBASE
  1

  9
$STYLESHEET
  1
MONOCHROME.CTB
  9
$XEDIT
290
     1
  9
$CEPSNTYPE
380
     0
  9
$PSTYLEMODE
290
     1
  9
$FINGERPRINTGUID
  2
{3E8CAF70-4B02-11D5-AF6E-00508B0B4F95}
  9
$VERSIONGUID
  2
{52CAD105-22FE-4C1E-B292-92B685C296B3}
  9
$EXTNAMES
290
     1
  9
$PSVPSCALE
 40
0.0
  9
$OLESTARTUP
290
     0
  0
ENDSEC
  0
SECTION
  2
CLASSES
  0
CLASS
  1
LWPOLYLINE
  2
AcDbPolyline
  3
AutoCAD 2000
 90
    32768
280
     0
281
     1
  0
CLASS
  1
ACDBDICTIONARYWDFLT
  2
AcDbDictionaryWithDefault
  3
AutoCAD 2000
 90
        0
280
     0
281
     0
  0
CLASS
  1
ACDBPLACEHOLDER
  2
AcDbPlaceHolder
  3
AutoCAD 2000
 90
        0
280
     0
281
     0
  0
CLASS
  1
LAYOUT
  2
AcDbLayout
  3
AutoCAD 2000
 90
        0
280
     0
281
     0
  0
CLASS
  1
DICTIONARYVAR
  2
AcDbDictionaryVar
  3
AutoCAD 2000
 90
        0
280
     0
281
     0
  0
ENDSEC
  0
SECTION
  2
TABLES
  0
TABLE
  2
VPORT
  5
8
330
0
100
AcDbSymbolTable
 70
     2
  0
VPORT
  5
7146
330
8
100
AcDbSymbolTableRecord
100
AcDbViewportTableRecord
  2
*Active
 70
     0
 10
0.0
 20
0.0
 11
1.0
 21
1.0
 12
-44.00746200018383
 22
5.992038092686931
 13
0.0
 23
0.0
 14
0.005
 24
0.005
 15
0.25
 25
0.25
 16
0.0
 26
0.0
 36
1.0
 17
0.0
 27
0.0
 37
0.0
 40
11.15189511727418
 41
1.781021897810219
 42
50.0
 43
0.0
 44
0.0
 50
0.0
 51
0.0
 71
     0
 72
 20000
 73
     1
 74
     2
 75
     0
 76
     0
 77
     0
 78
     0
281
     0
 65
     1
110
0.0
120
0.0
130
0.0
111
1.0
121
0.0
131
0.0
112
0.0
122
1.0
132
0.0
 79
     1
146
0.0
  0
ENDTAB
  0
TABLE
  2
LTYPE
  5
5
330
0
100
AcDbSymbolTable
 70
     5
  0
LTYPE
  5
12
330
5
100
AcDbSymbolTableRecord
100
AcDbLinetypeTableRecord
  2
BYBLOCK
 70
     0
  3

 72
    65
 73
     0
 40
0.0
  0
LTYPE
  5
13
330
5
100
AcDbSymbolTableRecord
100
AcDbLinetypeTableRecord
  2
BYLAYER
 70
     0
  3

 72
    65
 73
     0
 40
0.0
  0
LTYPE
  5
14
330
5
100
AcDbSymbolTableRecord
100
AcDbLinetypeTableRecord
  2
CONTINUOUS
 70
     0
  3
Solid line
 72
    65
 73
     0
 40
0.0
  0
LTYPE
  5
5DB4
330
5
100
AcDbSymbolTableRecord
100
AcDbLinetypeTableRecord
  2
HIDDEN
 70
     0
  3
Hidden __ __ __ __ __ __ __ __ __ __ __ __ __ _
 72
    65
 73
     2
 40
0.375
 49
0.25
 74
     0
 49
-0.125
 74
     0
  0
LTYPE
  5
7062
330
5
100
AcDbSymbolTableRecord
100
AcDbLinetypeTableRecord
  2
HIDDEN2
 70
     0
  3
Hidden (.5x) _ _ _ _ _ _ _ _ _ _ _ _ _ _ _ _ _
 72
    65
 73
     2
 40
0.1875
 49
0.125
 74
     0
 49
-0.0625
 74
     0
  0
LTYPE
  5
706F
330
5
100
AcDbSymbolTableRecord
100
AcDbLinetypeTableRecord
  2
CENTER2
 70
     0
  3
Center (.5x) ___ _ ___ _ ___ _ ___ _ ___ _ ___
 72
    65
 73
     4
 40
1.125
 49
0.75
 74
     0
 49
-0.125
 74
     0
 49
0.125
 74
     0
 49
-0.125
 74
     0
  0
ENDTAB
  0
TABLE
  2
LAYER
  5
2
330
0
100
AcDbSymbolTable
 70
    15
  0
LAYER
  5
F
330
2
100
AcDbSymbolTableRecord
100
AcDbLayerTableRecord
  2
0
 70
     0
 62
     7
  6
CONTINUOUS
370
    -3
390
5DBE
  0
LAYER
  5
20
330
2
100
AcDbSymbolTableRecord
100
AcDbLayerTableRecord
  2
D1
 70
     0
 62
     6
  6
CONTINUOUS
370
    -3
390
5DBE
  0
LAYER
  5
13F
330
2
100
AcDbSymbolTableRecord
100
AcDbLayerTableRecord
  2
S2
 70
     0
 62
     3
  6
CONTINUOUS
370
    -3
390
5DBE
  0
LAYER
  5
6C13
330
2
100
AcDbSymbolTableRecord
100
AcDbLayerTableRecord
  2
DEFPOINTS
 70
     0
 62
     7
  6
CONTINUOUS
290
     0
370
    -3
390
5DBE
  0
ENDTAB
  0
TABLE
  2
STYLE
  5
3
330
0
100
AcDbSymbolTable
 70
     2
  0
STYLE
  5
10
330
3
100
AcDbSymbolTableRecord
100
AcDbTextStyleTableRecord
  2
STANDARD
 70
     0
 40
0.0
 41
1.0
 50
0.0
 71
     0
 42
0.08
  3
txt
  4

  0
ENDTAB
  0
TABLE
  2
VIEW
  5
6
330
0
100
AcDbSymbolTable
 70
     0
  0
ENDTAB
  0
TABLE
  2
UCS
  5
7
330
0
100
AcDbSymbolTable
 70
     0
  0
ENDTAB
  0
TABLE
  2
APPID
  5
9
330
0
100
AcDbSymbolTable
 70
     7
  0
APPID
  5
11
330
9
100
AcDbSymbolTableRecord
100
AcDbRegAppTableRecord
  2
ACAD
 70
     0
  0
APPID
  5
140
330
9
100
AcDbSymbolTableRecord
100
AcDbRegAppTableRecord
  2
AME_SOL
 70
     0
  0
APPID
  5
5904
330
9
100
AcDbSymbolTableRecord
100
AcDbRegAppTableRecord
  2
CONTENTTABDATA
 70
     0
  0
APPID
  5
5905
330
9
100
AcDbSymbolTableRecord
100
AcDbRegAppTableRecord
  2
CONTENTCURRENTTAB
 70
     0
  0
APPID
  5
5908
330
9
100
AcDbSymbolTableRecord
100
AcDbRegAppTableRecord
  2
CONTENTBLOCKDESCRIPTION
 70
     0
  0
APPID
  5
5922
330
9
100
AcDbSymbolTableRecord
100
AcDbRegAppTableRecord
  2
CONTENTLONGBLOCKNAME
 70
     0
  0
APPID
  5
5923
330
9
100
AcDbSymbolTableRecord
100
AcDbRegAppTableRecord
  2
CONTENTBLOCKICON
 70
     0
  0
ENDTAB
  0
TABLE
  2
DIMSTYLE
  5
A
330
0
100
AcDbSymbolTable
 70
     2
100
AcDbDimStyleTable
 71
     1
340
12F
  0
DIMSTYLE
105
12F
330
A
100
AcDbSymbolTableRecord
100
AcDbDimStyleTableRecord
  2
STANDARD
 70
     0
 42
0.04
 44
0.04
140
0.1
271
     3
272
     3
288
     1
340
10
  0
ENDTAB
  0
TABLE
  2
BLOCK_RECORD
  5
1
330
0
100
AcDbSymbolTable
 70
     8
  0
BLOCK_RECORD
  5
18
330
1
100
AcDbSymbolTableRecord
100
AcDbBlockTableRecord
  2
*MODEL_SPACE
340
5DC1
  0
BLOCK_RECORD
  5
15
330
1
100
AcDbSymbolTableRecord
100
AcDbBlockTableRecord
  2
*PAPER_SPACE
340
5DC2
  0
BLOCK_RECORD
  5
139
330
1
100
AcDbSymbolTableRecord
100
AcDbBlockTableRecord
  2
AME_NIL
340
0
102
{BLKREFS
331
B99
102
}
  0
BLOCK_RECORD
  5
13C
330
1
100
AcDbSymbolTableRecord
100
AcDbBlockTableRecord
  2
AME_SOL
340
0
102
{BLKREFS
331
B9A
102
}
  0
ENDTAB
  0
ENDSEC
  0
SECTION
  2
BLOCKS
  0
BLOCK
  5
28
330
18
100
AcDbEntity
  8
0
100
AcDbBlockBegin
  2
*MODEL_SPACE
 70
     0
 10
0.0
 20
0.0
 30
0.0
  3
*MODEL_SPACE
  1

  0
ENDBLK
  5
29
330
18
100
AcDbEntity
  8
0
100
AcDbBlockEnd
  0
BLOCK
  5
26
330
15
100
AcDbEntity
 67
     1
  8
0
100
AcDbBlockBegin
  2
*PAPER_SPACE
 70
     0
 10
0.0
 20
0.0
 30
0.0
  3
*PAPER_SPACE
  1

  0
ENDBLK
  5
27
330
15
100
AcDbEntity
 67
     1
  8
0
100
AcDbBlockEnd
  0
BLOCK
  5
13A
330
139
100
AcDbEntity
  8
0
100
AcDbBlockBegin
  2
AME_NIL
 70
     0
 10
0.0
 20
0.0
 30
0.0
  3
AME_NIL
  1
AME_NIL
  0
ENDBLK
  5
13B
330
139
100
AcDbEntity
  8
0
100
AcDbBlockEnd
  0
BLOCK
  5
13D
330
13C
100
AcDbEntity
  8
0
100
AcDbBlockBegin
  2
AME_SOL
 70
     0
 10
0.0
 20
0.0
 30
0.0
  3
AME_SOL
  1
AME_SOL
  0
ENDBLK
  5
13E
330
13C
100
AcDbEntity
  8
0
100
AcDbBlockEnd
  0
ENDSEC
  0
SECTION
  2
ENTITIES
  0
TEXT
  5
119
330
18
100
AcDbEntity
  8
D1
100
AcDbText
 10
13.09499999999998
 20
1.409999999999999
 30
0.0
 40
0.1
  1
   
100
AcDbText
  0
TEXT
  5
121
330
18
100
AcDbEntity
  8
D1
100
AcDbText
 10
13.935
 20
0.5400000000000005
 30
0.0
 40
0.1099999999999999
  1
    
100
AcDbText
  0
TEXT
  5
122
330
18
100
AcDbEntity
  8
D1
100
AcDbText
 10
14.97499999999999
 20
1.375
 30
0.0
 40
0.1
  1
 
100
AcDbText
  0
INSERT
  5
B99
330
18
100
AcDbEntity
  8
S2
100
AcDbBlockReference
  2
AME_NIL
 10
18.01494614176085
 20
14.67117853937151
 30
0.0
  0
INSERT
  5
B9A
330
18
100
AcDbEntity
  8
S2
100
AcDbBlockReference
  2
AME_SOL
 10
18.01494614176085
 20
14.67117853937151
 30
0.0
1001
AME_SOL
1000
R2.1_c2
1000
AME2
1000
sq cm
1070
     3
1070
     0
1070
     3
1000
wire
1040
45.0
1000
U
1040
1.0
1000
cm
1000
gm
1000
MILD_STEEL
1070
    25
1000
CSG
1070
     1
1070
     3
1070
     3
1070
     3
1070
     0
1000
cu cm
1070
     1
1070
     0
1005
0
  0
MTEXT
  5
5512
330
18
100
AcDbEntity
  8
D1
  6
Continuous
100
AcDbMText
 10
6.007481415616638
 20
4.983651421000419
 30
0.0
 40
0.13
 41
0.0
 71
     6
 72
     5
  1

 73
     1
 44
1.0
  0
LWPOLYLINE
  5
5907
330
18
100
AcDbEntity
  8
0
  6
Continuous
370
    13
100
AcDbPolyline
 90
        4
 70
     1
 43
0.03
 10
-52.50694390341369
 20
0.4921116272831716
 10
-35.50694390341368
 20
0.4921116272831716
 10
-35.50694390341368
 20
11.49211162728317
 10
-52.50694390341369
 20
11.49211162728317
  0
LWPOLYLINE
  5
59EC
330
18
100
AcDbEntity
  8
0
370
    13
100
AcDbPolyline
 90
        2
 70
     0
 43
0.0144
 10
-36.57217271383586
 20
1.061119627283169
 10
-36.57217271383586
 20
0.7816156272831709
  0
LWPOLYLINE
  5
59ED
330
18
100
AcDbEntity
  8
0
370
    13
100
AcDbPolyline
 90
        2
 70
     0
 43
0.0144
 10
-37.4024183620647
 20
1.061119627283169
 10
-37.4024183620647
 20
0.4838757627084577
  0
LWPOLYLINE
  5
59EE
330
18
100
AcDbEntity
  8
0
370
    13
100
AcDbPolyline
 90
        2
 70
     0
 43
0.0144
 10
-35.50112385877731
 20
0.7816156272831709
 10
-38.77782390341369
 20
0.7816156272831709
  0
LWPOLYLINE
  5
59EF
330
18
100
AcDbEntity
  8
0
370
    13
100
AcDbPolyline
 90
        2
 70
     0
 43
0.0144
 10
-35.49676688699153
 20
1.061119627283169
 10
-38.77782390341369
 20
1.061119627283169
  0
LWPOLYLINE
  5
59F0
330
18
100
AcDbEntity
  8
0
370
    13
100
AcDbPolyline
 90
        2
 70
     0
 43
0.0144
 10
-38.77782390341369
 20
1.340623627283169
 10
-35.49676688699153
 20
1.340623627283169
  0
LWPOLYLINE
  5
59F1
330
18
100
AcDbEntity
  8
0
370
    13
100
AcDbPolyline
 90
        2
 70
     0
 43
0.0144
 10
-38.77782390341369
 20
1.62012762728317
 10
-35.51694390341369
 20
1.62012762728317
  0
LWPOLYLINE
  5
59F2
330
18
100
AcDbEntity
  8
0
370
    13
100
AcDbPolyline
 90
        2
 70
     0
 43
0.0144
 10
-35.51694390341369
 20
1.778273835643591
 10
-38.77782390341369
 20
1.778273835643591
  0
LWPOLYLINE
  5
59F3
330
18
100
AcDbEntity
  8
0
370
    13
100
AcDbPolyline
 90
        2
 70
     0
 43
0.0144
 10
-38.77782390341369
 20
1.936673835643592
 10
-35.51694390341369
 20
1.936673835643592
  0
LINE
  5
59F4
330
18
100
AcDbEntity
  8
0
370
    13
100
AcDbLine
 10
-38.77782390341369
 20
1.936673835643592
 30
0.0
 11
-35.51694390341369
 21
1.936673835643592
 31
0.0
  0
LINE
  5
59F5
330
18
100
AcDbEntity
  8
0
370
    13
100
AcDbLine
 10
-38.77782390341369
 20
1.62012762728317
 30
0.0
 11
-35.51694390341369
 21
1.62012762728317
 31
0.0
  0
LINE
  5
59F6
330
18
100
AcDbEntity
  8
0
370
    13
100
AcDbLine
 10
-38.77782390341369
 20
1.340623627283169
 30
0.0
 11
-35.49676688699153
 21
1.340623627283169
 31
0.0
  0
LINE
  5
59F7
330
18
100
AcDbEntity
  8
0
370
    13
100
AcDbLine
 10
-38.77782390341369
 20
1.061119627283169
 30
0.0
 11
-35.49676688699153
 21
1.061119627283169
 31
0.0
  0
LINE
  5
59F8
330
18
100
AcDbEntity
  8
0
370
    13
100
AcDbLine
 10
-38.77782390341369
 20
0.7816156272831707
 30
0.0
 11
-35.50112385877731
 21
0.7816156272831707
 31
0.0
  0
LINE
  5
59F9
330
18
100
AcDbEntity
  8
0
370
    13
100
AcDbLine
 10
-38.77782390341369
 20
1.778273835643591
 30
0.0
 11
-35.51694390341369
 21
1.778273835643591
 31
0.0
  0
TRACE
  5
59FA
330
18
100
AcDbEntity
  8
0
370
    13
100
AcDbTrace
 10
-35.51694390341369
 20
2.206861035643592
 30
0.0
 11
-35.51694390341369
 21
2.225494635643591
 31
0.0
 12
-38.77316550341367
 22
2.206861035643592
 32
0.0
 13
-38.77316550341367
 23
2.225494635643591
 33
0.0
  0
TEXT
  5
59FB
330
18
100
AcDbEntity
  8
0
370
    13
100
AcDbText
 10
-36.53359079767749
 20
0.9635309474587463
 30
0.0
 40
0.0576
  1
DRAWING SCALE
100
AcDbText
  0
TEXT
  5
59FC
330
18
100
AcDbEntity
  8
0
370
    13
100
AcDbText
 10
-36.85414039435139
 20
1.528081193307309
 30
0.0
 40
0.0576
  1
APPROVED
100
AcDbText
  0
TEXT
  5
59FD
330
18
100
AcDbEntity
  8
0
100
AcDbText
 10
-37.11974739027515
 20
0.5431888808400345
 30
0.0
 40
0.0864
  1
SM1PD5B
100
AcDbText
  0
TEXT
  5
59FE
330
18
100
AcDbEntity
  8
0
370
    13
100
AcDbText
 10
-38.69397270341368
 20
1.815555435643591
 30
0.0
 40
0.0652176
  1
TOL: X.XXX=+/-0.005 X.XX=+/-0.010 ANGULAR +/-30'
100
AcDbText
  0
TRACE
  5
59FF
330
18
100
AcDbEntity
  8
0
370
    13
100
AcDbTrace
 10
-35.51694390341369
 20
2.56555783564359
 30
0.0
 11
-35.51694390341369
 21
2.61214183564359
 31
0.0
 12
-38.75453190341368
 22
2.56555783564359
 32
0.0
 13
-38.80111590341368
 23
2.61214183564359
 33
0.0
  0
TEXT
  5
5A00
330
18
100
AcDbEntity
  8
0
100
AcDbText
 10
-38.61521201163677
 20
1.994379289860428
 30
0.0
 40
0.0864
  1
SM1PD5B MOUNTED GERMANIUM PHOTODIODE
100
AcDbText
  0
TEXT
  5
5A01
330
18
100
AcDbEntity
  8
0
100
AcDbText
 10
-38.17862121449171
 20
1.126515888656992
 30
0.0
 40
0.0864
  1
N/A
100
AcDbText
  0
TEXT
  5
5A02
330
18
100
AcDbEntity
  8
0
370
    13
100
AcDbText
 10
-38.70739006730232
 20
1.66278026911697
 30
0.0
 40
0.0623101182846307
  1
SURF. FINISH: 32 MICROINCHES UNLESS OTHERWISE NOTED
100
AcDbText
  0
LWPOLYLINE
  5
5A03
330
18
100
AcDbEntity
  8
0
370
    13
100
AcDbPolyline
 90
        2
 70
     0
 43
0.0144
 10
-37.71818763596501
 20
1.061119627283169
 10
-37.71818763596501
 20
0.7816156272831709
  0
LWPOLYLINE
  5
5A04
330
18
100
AcDbEntity
  8
0
370
    13
100
AcDbPolyline
 90
        2
 70
     0
 43
0.0144
 10
-37.9898162989764
 20
1.061119627283169
 10
-37.9898162989764
 20
0.7816156272831709
  0
LWPOLYLINE
  5
5A05
330
18
100
AcDbEntity
  8
0
370
    13
100
AcDbPolyline
 90
        2
 70
     0
 43
0.0144
 10
-37.75221629897639
 20
1.62012762728317
 10
-37.75221629897639
 20
1.340623627283169
  0
LWPOLYLINE
  5
5A06
330
18
100
AcDbEntity
  8
0
370
    13
100
AcDbPolyline
 90
        2
 70
     0
 43
0.0144
 10
-36.94725629897639
 20
1.62012762728317
 10
-36.94725629897639
 20
1.340623627283169
  0
LINE
  5
5A07
330
18
100
AcDbEntity
  8
0
370
    13
100
AcDbLine
 10
-37.71818763596501
 20
1.061119627283169
 30
0.0
 11
-37.71818763596501
 21
0.7816156272831707
 31
0.0
  0
LINE
  5
5A08
330
18
100
AcDbEntity
  8
0
370
    13
100
AcDbLine
 10
-37.75221629897639
 20
1.340623627283169
 30
0.0
 11
-37.75221629897639
 21
1.62012762728317
 31
0.0
  0
LINE
  5
5A09
330
18
100
AcDbEntity
  8
0
370
    13
100
AcDbLine
 10
-36.94725629897639
 20
1.340623627283169
 30
0.0
 11
-36.94725629897639
 21
1.62012762728317
 31
0.0
  0
LINE
  5
5A0A
330
18
100
AcDbEntity
  8
0
370
    13
100
AcDbLine
 10
-37.9898162989764
 20
0.7816156272831707
 30
0.0
 11
-37.9898162989764
 21
1.061119627283169
 31
0.0
  0
TEXT
  5
5A0B
330
18
100
AcDbEntity
  8
0
100
AcDbText
 10
-38.55809993739589
 20
0.5431888808400345
 30
0.0
 40
0.0864
  1
14003-E01
100
AcDbText
  0
TEXT
  5
5A0C
330
18
100
AcDbEntity
  8
0
100
AcDbText
 10
-38.71094739027515
 20
0.8455888808400331
 30
0.0
 40
0.0864
  1
01/20/06
100
AcDbText
  0
TEXT
  5
5A0D
330
18
100
AcDbEntity
  8
0
100
AcDbText
 10
-38.45005524326928
 20
1.382872846864172
 30
0.0
 40
0.0864
  1
HIT
100
AcDbText
  0
TEXT
  5
5A0E
330
18
100
AcDbEntity
  8
0
100
AcDbText
 10
-37.87976205180152
 20
0.8455888808400331
 30
0.0
 40
0.0864
  1
A
100
AcDbText
  0
TEXT
  5
5A0F
330
18
100
AcDbEntity
  8
0
370
    13
100
AcDbText
 10
-37.66165032282646
 20
0.9649707167954256
 30
0.0
 40
0.0576
  1
SIZE
 72
     1
 11
-37.56565032282646
 21
0.9649707167954256
 31
0.0
100
AcDbText
  0
TEXT
  5
5A10
330
18
100
AcDbEntity
  8
0
100
AcDbText
 10
-37.59387319672677
 20
0.8569707167954252
 30
0.0
 40
0.0864
  1
B
 72
     1
 11
-37.56507319672677
 21
0.8569707167954252
 31
0.0
100
AcDbText
  0
TEXT
  5
5A11
330
18
100
AcDbEntity
  8
0
100
AcDbText
 10
-37.18215665466839
 20
0.8455888808400331
 30
0.0
 40
0.0864
  1
1
100
AcDbText
  0
TEXT
  5
5A13
330
18
100
AcDbEntity
  8
0
100
AcDbText
 10
-36.82935665466839
 20
0.8455888808400331
 30
0.0
 40
0.0864
  1
1
100
AcDbText
  0
TRACE
  5
5A14
330
18
100
AcDbEntity
  8
0
370
    13
100
AcDbTrace
 10
-38.75453190341368
 20
2.566061402659054
 30
0.0
 11
-38.80111590341368
 21
2.612645402659055
 31
0.0
 12
-38.75453190341368
 22
0.5021116272831714
 32
0.0
 13
-38.80111590341368
 23
0.5021116272831714
 33
0.0
  0
LINE
  5
5A15
330
18
100
AcDbEntity
  8
0
370
    13
100
AcDbLine
 10
-36.57217271383586
 20
1.061119627283169
 30
0.0
 11
-36.57217271383586
 21
0.7816156272831707
 31
0.0
  0
LINE
  5
5A16
330
18
100
AcDbEntity
  8
0
370
    13
100
AcDbLine
 10
-37.4024183620647
 20
0.4838757627084577
 30
0.0
 11
-37.4024183620647
 21
1.061119627283169
 31
0.0
  0
TEXT
  5
5A17
330
18
100
AcDbEntity
  8
0
370
    13
100
AcDbText
 10
-38.68931430341369
 20
0.6884476272831713
 30
0.0
 40
0.0652176
  1
DWG NO.
100
AcDbText
  0
TEXT
  5
5A18
330
18
100
AcDbEntity
  8
0
370
    13
100
AcDbText
 10
-37.34290726529052
 20
0.6884476272831713
 30
0.0
 40
0.0652176
  1
PART NO.
100
AcDbText
  0
TEXT
  5
5A19
330
18
100
AcDbEntity
  8
0
370
    13
100
AcDbText
 10
-37.73076947264081
 20
1.528081193307309
 30
0.0
 40
0.0576
  1
ENGINEER
100
AcDbText
  0
TEXT
  5
5A1A
330
18
100
AcDbEntity
  8
0
370
    13
100
AcDbText
 10
-38.69397270341368
 20
1.238560686607382
 30
0.0
 40
0.0652176
  1
MATERIAL
100
AcDbText
  0
TEXT
  5
5A1B
330
18
100
AcDbEntity
  8
0
370
    13
100
AcDbText
 10
-38.68931430341369
 20
0.9679516272831703
 30
0.0
 40
0.0576
  1
DATE
100
AcDbText
  0
TEXT
  5
5A1C
330
18
100
AcDbEntity
  8
0
370
    13
100
AcDbText
 10
-38.70017731076397
 20
1.528081193307309
 30
0.0
 40
0.0576
  1
DRAWN
100
AcDbText
  0
TEXT
  5
5A1D
330
18
100
AcDbEntity
  8
0
370
    13
100
AcDbText
 10
-37.96006246529052
 20
0.9632932272831702
 30
0.0
 40
0.0576
  1
REV
100
AcDbText
  0
TEXT
  5
5A1E
330
18
100
AcDbEntity
  8
0
370
    13
100
AcDbText
 10
-38.69397270341368
 20
2.118351435643591
 30
0.0
 40
0.0652176
  1
TITLE
100
AcDbText
  0
TEXT
  5
5A1F
330
18
100
AcDbEntity
  8
0
370
    13
100
AcDbText
 10
-37.36456749754859
 20
0.9635309474587463
 30
0.0
 40
0.0576
  1
SHEET
100
AcDbText
  0
TEXT
  5
5A20
330
18
100
AcDbEntity
  8
0
370
    13
100
AcDbText
 10
-37.0451428981384
 20
0.8523412272831707
 30
0.0
 40
0.0652176
  1
OF
100
AcDbText
  0
TEXT
  5
5A21
330
18
100
AcDbEntity
  8
0
100
AcDbText
 10
-36.33550850999792
 20
0.8455888808400331
 30
0.0
 40
0.0864
  1
2" = 1"
100
AcDbText
  0
TEXT
  5
5A22
330
18
100
AcDbEntity
  8
0
370
    13
100
AcDbText
 10
-36.64593289584787
 20
2.423164986131336
 30
0.0
 40
0.104814
  1
PO BOX 366
100
AcDbText
  0
TEXT
  5
5A23
330
18
100
AcDbEntity
  8
0
370
    13
100
AcDbText
 10
-36.64593289584787
 20
2.248474986131336
 30
0.0
 40
0.104814
  1
NEWTON NJ
100
AcDbText
  0
LWPOLYLINE
  5
5A24
330
18
100
AcDbEntity
  8
0
370
    13
100
AcDbPolyline
 90
        2
 70
     0
 43
0.00493045056
 10
-36.79371562564707
 20
2.462067105502534
 42
0.1521907920671271
 10
-36.79801075667858
 20
2.496806460126451
 42
0.1521907920671271
  0
SOLID
  5
5A25
330
18
100
AcDbEntity
  8
0
370
    13
100
AcDbTrace
 10
-36.80791396096791
 20
2.470291697178187
 30
0.0
 11
-36.79194050707431
 21
2.462310286192543
 31
0.0
 12
-36.81440317661218
 22
2.491741739202102
 32
0.0
 13
-36.79917847836986
 23
2.501967922027457
 33
0.0
  0
LWPOLYLINE
  5
5A26
330
18
100
AcDbEntity
  8
0
370
    13
100
AcDbPolyline
 90
        2
 70
     0
 43
0.00493045056
 10
-36.91482471374607
 20
2.490673265252776
 42
0.3986208060685013
 10
-36.88189244170418
 20
2.420374273631634
 42
0.3986208060685013
  0
SOLID
  5
5A27
330
18
100
AcDbEntity
  8
0
370
    13
100
AcDbTrace
 10
-36.88734764443827
 20
2.499107795052449
 30
0.0
 11
-36.89977225159545
 21
2.512652890338303
 31
0.0
 12
-36.90270897692352
 22
2.482627929121326
 32
0.0
 13
-36.91694079966721
 23
2.488497470411861
 33
0.0
  0
SOLID
  5
5A28
330
18
100
AcDbEntity
  8
0
370
    13
100
AcDbTrace
 10
-36.90270897692352
 20
2.482627929121326
 30
0.0
 11
-36.91694079966721
 21
2.488497470411861
 31
0.0
 12
-36.90022405549209
 22
2.456440744902008
 32
0.0
 13
-36.91513358408071
 23
2.450345452023372
 33
0.0
  0
ARC
  5
5A29
330
18
100
AcDbEntity
  8
0
370
    13
100
AcDbCircle
 10
-37.22988957831474
 20
2.451406827523078
 30
0.0
 40
0.0589785580760116
100
AcDbArc
 50
358.6532608214001
 51
58.67020583628288
  0
SOLID
  5
5A2A
330
18
100
AcDbEntity
  8
0
370
    13
100
AcDbTrace
 10
-37.94372365092728
 20
2.477550151191652
 30
0.0
 11
-37.94372365092728
 21
2.511788449336834
 31
0.0
 12
-37.87675747120017
 22
2.477550151191652
 32
0.0
 13
-37.85261637506242
 23
2.517497586131336
 33
0.0
  0
LWPOLYLINE
  5
5A2B
330
18
100
AcDbEntity
  8
0
370
    13
100
AcDbPolyline
 90
        2
 70
     0
 43
0.0104814
 10
-37.84476283277838
 20
2.385556000624649
 42
0.9399343180161679
 10
-37.85261637506242
 20
2.512256886131337
 42
0.9399343180161679
  0
LWPOLYLINE
  5
5A2C
330
18
100
AcDbEntity
  8
0
370
    13
100
AcDbPolyline
 90
        2
 70
     0
 43
0.0104814
 10
-37.87675747120017
 20
2.394445578919876
 42
1.0
 10
-37.87675747120017
 20
2.482790851191651
 42
1.0
  0
SOLID
  5
5A2D
330
18
100
AcDbEntity
  8
0
370
    13
100
AcDbTrace
 10
-37.83636545193347
 20
2.461444576793406
 30
0.0
 11
-37.79567677517514
 21
2.482616780915384
 31
0.0
 12
-37.85426846970714
 22
2.480445272800309
 32
0.0
 13
-37.83582293624336
 23
2.510303509382582
 33
0.0
  0
SOLID
  5
5A2E
330
18
100
AcDbEntity
  8
0
370
    13
100
AcDbTrace
 10
-37.85426846970714
 20
2.480445272800309
 30
0.0
 11
-37.83582293624336
 21
2.510303509382582
 31
0.0
 12
-37.87675747120017
 22
2.477550151191652
 32
0.0
 13
-37.85261637506242
 23
2.517497586131336
 33
0.0
  0
LWPOLYLINE
  5
5A2F
330
18
100
AcDbEntity
  8
0
370
    13
100
AcDbPolyline
 90
        6
 70
     0
 43
0.00493045056
 10
-36.87914394306287
 20
2.501330070830354
 42
0.3426274439635524
 10
-36.90291634121265
 20
2.476050825668901
 42
0.2942809489964497
 10
-36.88597641072879
 20
2.443344666530431
 42
0.2735375373643303
 10
-36.82432331475537
 20
2.4441781517414
 42
0.208169861593478
 10
-36.80865335111278
 20
2.466465816932975
 42
0.4189849082168211
 10
-36.83281249432888
 20
2.502453249544585
 42
0.4189849082168211
  0
LINE
  5
5A30
330
18
100
AcDbEntity
  8
0
370
    13
100
AcDbLine
 10
-37.72877369265192
 20
2.300008536131335
 30
0.0
 11
-37.72877369265192
 21
2.517497586131336
 31
0.0
  0
LINE
  5
5A31
330
18
100
AcDbEntity
  8
0
370
    13
100
AcDbLine
 10
-37.78380104265193
 20
2.517497586131336
 30
0.0
 11
-37.78380104265193
 21
2.255462586131336
 31
0.0
  0
LWPOLYLINE
  5
5A32
330
18
100
AcDbEntity
  8
0
370
    13
100
AcDbPolyline
 90
        4
 70
     0
 43
0.0
 10
-37.60028483040193
 20
2.300008536131335
 10
-37.52307621765192
 20
2.517497586131336
 10
-37.46411834265193
 20
2.517497586131336
 10
-37.37767496845838
 20
2.273995123614296
  0
LINE
  5
5A33
330
18
100
AcDbEntity
  8
0
370
    13
100
AcDbLine
 10
-37.37767496845838
 20
2.517497586131336
 30
0.0
 11
-37.37767496845838
 21
2.273995123614298
 31
0.0
  0
LWPOLYLINE
  5
5A34
330
18
100
AcDbEntity
  8
0
370
    13
100
AcDbPolyline
 90
       14
 70
     0
 43
0.0
 10
-37.1635966307049
 20
2.334210671736443
 10
-37.12158077115277
 20
2.334210671736443
 42
0.3020440864755188
 10
-37.0947109213769
 20
2.294624202276565
 42
0.2653699712401423
 10
-37.02266882779354
 20
2.304114549770706
 42
0.6356064402471244
 10
-37.03429681258382
 20
2.358311684260055
 42
-0.0009437836138568
 10
-37.12019033292747
 20
2.378328688107859
 42
-0.3442454331168749
 10
-37.17087457331789
 20
2.441407856476399
 42
-0.322222187521162
 10
-37.11889379231122
 20
2.515837983645528
 42
-0.1417364340760132
 10
-37.03004225390486
 20
2.520829930332127
 42
-0.3337744805077131
 10
-36.96628855850184
 20
2.445296615677747
 10
-37.01810273593297
 20
2.445296615677747
 42
0.3019792396306431
 10
-37.04285558005533
 20
2.47969588979547
 42
0.1972875622237244
 10
-37.09780407160752
 20
2.478098530674309
 42
0.728374493267646
 10
-37.09155693898049
 20
2.419866265182063
 42
0.0019568917075044
  0
SOLID
  5
5A35
330
18
100
AcDbEntity
  8
0
370
    13
100
AcDbTrace
 10
-38.02240876526931
 20
2.471408161981997
 30
0.0
 11
-38.06137747903532
 21
2.453014450379918
 31
0.0
 12
-38.07461213654077
 22
2.512610075970655
 32
0.0
 13
-38.08784679404621
 23
2.475086904302414
 33
0.0
  0
SOLID
  5
5A36
330
18
100
AcDbEntity
  8
0
370
    13
100
AcDbTrace
 10
-38.07461213654077
 20
2.512610075970655
 30
0.0
 11
-38.08784679404621
 21
2.475086904302414
 31
0.0
 12
-38.12263389077414
 22
2.522814238305248
 32
0.0
 13
-38.12374078940186
 23
2.485154618740033
 33
0.0
  0
SOLID
  5
5A37
330
18
100
AcDbEntity
  8
0
370
    13
100
AcDbTrace
 10
-38.19236850432099
 20
2.498446249174814
 30
0.0
 11
-38.17244432902189
 21
2.468540080696555
 31
0.0
 12
-38.22778926040827
 22
2.458571357870466
 32
0.0
 13
-38.19015470706553
 23
2.431988097000902
 33
0.0
  0
LWPOLYLINE
  5
5A38
330
18
100
AcDbEntity
  8
0
370
    13
100
AcDbPolyline
 90
        2
 70
     0
 43
0.0104814
 10
-38.00935503680414
 20
2.436925369059131
 42
0.7414713431190223
 10
-38.23479842060359
 20
2.435594318890266
 42
0.7414713431190223
  0
SOLID
  5
5A39
330
18
100
AcDbEntity
  8
0
370
    13
100
AcDbTrace
 10
-38.12263389077414
 20
2.522814238305248
 30
0.0
 11
-38.12374078940186
 21
2.485154618740033
 31
0.0
 12
-38.19236850432099
 22
2.498446249174814
 32
0.0
 13
-38.17244432902189
 23
2.468540080696555
 33
0.0
  0
SOLID
  5
5A3A
330
18
100
AcDbEntity
  8
0
370
    13
100
AcDbTrace
 10
-38.67996074265192
 20
2.517497586131336
 30
0.0
 11
-38.45985134265193
 21
2.517497586131336
 31
0.0
 12
-38.67996074265192
 22
2.474261811131337
 32
0.0
 13
-38.45985134265193
 23
2.474261811131337
 33
0.0
  0
LWPOLYLINE
  5
5A3B
330
18
100
AcDbEntity
  8
0
370
    13
100
AcDbPolyline
 90
        4
 70
     1
 43
0.0104814
 10
-38.18624229790094
 20
2.444996620445318
 42
0.2285268323977459
 10
-38.18501824501571
 20
2.326021752009645
 42
0.6230043105321781
 10
-38.0589593454365
 20
2.326419477316845
 42
0.2290062495557326
 10
-38.05859411331329
 20
2.445515668241113
 42
0.6323121992740219
  0
SOLID
  5
5A3C
330
18
100
AcDbEntity
  8
0
370
    13
100
AcDbTrace
 10
-38.45985134265193
 20
2.517497586131336
 30
0.0
 11
-38.40744434265193
 21
2.517497586131336
 31
0.0
 12
-38.45985134265193
 22
2.255462586131335
 32
0.0
 13
-38.40744434265193
 23
2.255462586131335
 33
0.0
  0
SOLID
  5
5A3D
330
18
100
AcDbEntity
  8
0
370
    13
100
AcDbTrace
 10
-38.29869981765193
 20
2.517497586131336
 30
0.0
 11
-38.24629281765194
 21
2.517497586131336
 31
0.0
 12
-38.29869981765193
 22
2.255462586131335
 32
0.0
 13
-38.24629281765194
 23
2.255462586131335
 33
0.0
  0
SOLID
  5
5A3E
330
18
100
AcDbEntity
  8
0
370
    13
100
AcDbTrace
 10
-37.99725344679554
 20
2.255462586131335
 30
0.0
 11
-37.99725344679554
 21
2.517497586131336
 31
0.0
 12
-37.94372365092728
 22
2.255462586131335
 32
0.0
 13
-37.94372365092728
 23
2.511788449336834
 33
0.0
  0
LINE
  5
5A3F
330
18
100
AcDbEntity
  8
0
370
    13
100
AcDbLine
 10
-37.78380104265193
 20
2.255462586131336
 30
0.0
 11
-37.59775619265193
 21
2.255462586131336
 31
0.0
  0
LINE
  5
5A40
330
18
100
AcDbEntity
  8
0
370
    13
100
AcDbLine
 10
-37.60028483040193
 20
2.300008536131335
 30
0.0
 11
-37.72877369265192
 21
2.300008536131335
 31
0.0
  0
SOLID
  5
5A41
330
18
100
AcDbEntity
  8
0
370
    13
100
AcDbTrace
 10
-38.59610954265193
 20
2.255462586131336
 30
0.0
 11
-38.54370254265193
 21
2.255462586131336
 31
0.0
 12
-38.59610954265193
 22
2.474261811131337
 32
0.0
 13
-38.54370254265193
 23
2.474261811131337
 33
0.0
  0
SOLID
  5
5A42
330
18
100
AcDbEntity
  8
0
370
    13
100
AcDbTrace
 10
-38.29869981765193
 20
2.415303936131335
 30
0.0
 11
-38.40744434265193
 21
2.415303936131335
 31
0.0
 12
-38.29869981765193
 22
2.370757986131336
 32
0.0
 13
-38.40744434265193
 23
2.370757986131336
 33
0.0
  0
LWPOLYLINE
  5
5A43
330
18
100
AcDbEntity
  8
0
370
    13
100
AcDbPolyline
 90
        2
 70
     0
 43
0.0104814
 10
-38.00740374521142
 20
2.344482536601264
 42
0.1406948172011772
 10
-38.00935503680414
 20
2.436925369059131
 42
0.1406948172011772
  0
SOLID
  5
5A44
330
18
100
AcDbEntity
  8
0
370
    13
100
AcDbTrace
 10
-38.00035100276025
 20
2.397097567109596
 30
0.0
 11
-38.04593704527899
 21
2.401512057894095
 31
0.0
 12
-38.02240876526931
 22
2.471408161981997
 32
0.0
 13
-38.06137747903532
 23
2.453014450379918
 33
0.0
  0
LWPOLYLINE
  5
5A45
330
18
100
AcDbEntity
  8
0
370
    13
100
AcDbPolyline
 90
        2
 70
     0
 43
0.0104814
 10
-38.23479842060359
 20
2.435594318890266
 42
0.1430540650207981
 10
-38.23523525141289
 20
2.342083503530087
 42
0.1430540650207981
  0
SOLID
  5
5A46
330
18
100
AcDbEntity
  8
0
370
    13
100
AcDbTrace
 10
-38.22778926040827
 20
2.458571357870466
 30
0.0
 11
-38.19015470706553
 21
2.431988097000902
 31
0.0
 12
-38.24298639035998
 22
2.38606134014835
 32
0.0
 13
-38.20034138284245
 23
2.382382597827934
 33
0.0
  0
SOLID
  5
5A47
330
18
100
AcDbEntity
  8
0
370
    13
100
AcDbTrace
 10
-38.12166869656011
 20
2.254362365077462
 30
0.0
 11
-38.12166869656011
 21
2.287471045961204
 31
0.0
 12
-38.053289632782
 22
2.277906315928122
 32
0.0
 13
-38.07167110153956
 23
2.302921763706951
 33
0.0
  0
SOLID
  5
5A48
330
18
100
AcDbEntity
  8
0
370
    13
100
AcDbTrace
 10
-38.22386966285211
 20
2.311014996811866
 30
0.0
 11
-38.1863714665867
 21
2.324994217629445
 31
0.0
 12
-38.16872525657945
 22
2.263191346646459
 32
0.0
 13
-38.1496085290716
 23
2.290414039817536
 33
0.0
  0
SOLID
  5
5A49
330
18
100
AcDbEntity
  8
0
370
    13
100
AcDbTrace
 10
-38.16872525657945
 20
2.263191346646459
 30
0.0
 11
-38.1496085290716
 21
2.290414039817536
 31
0.0
 12
-38.12166869656011
 22
2.254362365077462
 32
0.0
 13
-38.12166869656011
 23
2.287471045961204
 33
0.0
  0
LWPOLYLINE
  5
5A4A
330
18
100
AcDbEntity
  8
0
370
    13
100
AcDbPolyline
 90
        2
 70
     0
 43
0.0104814
 10
-38.23523525141289
 20
2.342083503530087
 42
0.7616390336395551
 10
-38.00740374521142
 20
2.344482536601264
 42
0.7616390336395551
  0
SOLID
  5
5A4B
330
18
100
AcDbEntity
  8
0
370
    13
100
AcDbTrace
 10
-38.24298639035998
 20
2.38606134014835
 30
0.0
 11
-38.20034138284245
 21
2.382382597827934
 31
0.0
 12
-38.22386966285211
 22
2.311014996811866
 32
0.0
 13
-38.1863714665867
 23
2.324994217629445
 33
0.0
  0
SOLID
  5
5A4C
330
18
100
AcDbEntity
  8
0
370
    13
100
AcDbTrace
 10
-38.053289632782
 20
2.277906315928122
 30
0.0
 11
-38.07167110153956
 21
2.302921763706951
 31
0.0
 12
-38.01652669526689
 22
2.31910822991678
 32
0.0
 13
-38.0474075627796
 23
2.35148116233644
 33
0.0
  0
SOLID
  5
5A4D
330
18
100
AcDbEntity
  8
0
370
    13
100
AcDbTrace
 10
-38.01652669526689
 20
2.31910822991678
 30
0.0
 11
-38.0474075627796
 21
2.35148116233644
 31
0.0
 12
-38.00035100276025
 22
2.397097567109596
 32
0.0
 13
-38.04593704527899
 23
2.401512057894095
 33
0.0
  0
SOLID
  5
5A4E
330
18
100
AcDbEntity
  8
0
370
    13
100
AcDbTrace
 10
-37.83094029503237
 20
2.439729495642662
 30
0.0
 11
-37.79025161827405
 21
2.426700446952214
 31
0.0
 12
-37.83636545193347
 22
2.461444576793406
 32
0.0
 13
-37.79567677517514
 23
2.482616780915384
 33
0.0
  0
SOLID
  5
5A4F
330
18
100
AcDbEntity
  8
0
370
    13
100
AcDbTrace
 10
-37.94372365092728
 20
2.399686278919876
 30
0.0
 11
-37.94372365092728
 21
2.36018581116814
 31
0.0
 12
-37.87675747120017
 22
2.399686278919876
 32
0.0
 13
-37.89268600448921
 23
2.36018581116814
 33
0.0
  0
SOLID
  5
5A50
330
18
100
AcDbEntity
  8
0
370
    13
100
AcDbTrace
 10
-37.86982220580926
 20
2.362151702374646
 30
0.0
 11
-37.84411563083365
 21
2.380355417375364
 31
0.0
 12
-37.89268600448921
 22
2.36018581116814
 32
0.0
 13
-37.87675747120017
 23
2.399686278919876
 33
0.0
  0
SOLID
  5
5A51
330
18
100
AcDbEntity
  8
0
370
    13
100
AcDbTrace
 10
-37.85560336635789
 20
2.348000403239087
 30
0.0
 11
-37.82726248361896
 21
2.36785223452453
 31
0.0
 12
-37.86982220580926
 22
2.362151702374646
 32
0.0
 13
-37.84411563083365
 23
2.380355417375364
 33
0.0
  0
SOLID
  5
5A52
330
18
100
AcDbEntity
  8
0
370
    13
100
AcDbTrace
 10
-37.84920372532744
 20
2.398760312599208
 30
0.0
 11
-37.82917806749351
 21
2.38942415642439
 31
0.0
 12
-37.83094029503237
 22
2.439729495642662
 32
0.0
 13
-37.79025161827405
 23
2.426700446952214
 33
0.0
  0
SOLID
  5
5A53
330
18
100
AcDbEntity
  8
0
370
    13
100
AcDbTrace
 10
-37.84920372532744
 20
2.398760312599208
 30
0.0
 11
-37.82917806749351
 21
2.38942415642439
 31
0.0
 12
-37.87675747120017
 22
2.399686278919876
 32
0.0
 13
-37.84411563083365
 23
2.380355417375364
 33
0.0
  0
LWPOLYLINE
  5
5A54
330
18
100
AcDbEntity
  8
0
370
    13
100
AcDbPolyline
 90
        2
 70
     0
 43
0.0104814
 10
-37.79429130443442
 20
2.272311824583561
 42
0.0950669764493849
 10
-37.79010564039583
 20
2.258170794898104
 42
0.1404915454274296
  0
SOLID
  5
5A55
330
18
100
AcDbEntity
  8
0
370
    13
100
AcDbTrace
 10
-37.8362179265675
 20
2.255462586131335
 30
0.0
 11
-37.78219371254546
 21
2.255462586131335
 31
0.0
 12
-37.83869297601034
 22
2.262748835807669
 32
0.0
 13
-37.79008745494826
 23
2.267857647445037
 33
0.0
  0
LWPOLYLINE
  5
5A56
330
18
100
AcDbEntity
  8
0
370
    13
100
AcDbPolyline
 90
        2
 70
     0
 43
0.0104814
 10
-37.83534274319467
 20
2.269287899109138
 42
0.1148360225250129
 10
-37.83173050599729
 20
2.258169612750358
 42
0.1148360225250129
  0
SOLID
  5
5A57
330
18
100
AcDbEntity
  8
0
370
    13
100
AcDbTrace
 10
-37.84460897991327
 20
2.316051533604086
 30
0.0
 11
-37.84056431581209
 21
2.268840555962011
 31
0.0
 12
-37.7948197028745
 22
2.331120750135454
 32
0.0
 13
-37.78907585975924
 23
2.272825705240911
 33
0.0
  0
SOLID
  5
5A58
330
18
100
AcDbEntity
  8
0
370
    13
100
AcDbTrace
 10
-37.83869297601034
 20
2.262748835807669
 30
0.0
 11
-37.79008745494826
 21
2.267857647445037
 31
0.0
 12
-37.84056431581209
 22
2.268840555962011
 32
0.0
 13
-37.78907585975924
 23
2.272825705240911
 33
0.0
  0
LWPOLYLINE
  5
5A59
330
18
100
AcDbEntity
  8
0
370
    13
100
AcDbPolyline
 90
        2
 70
     0
 43
0.0104814
 10
-37.80003514754968
 20
2.330606869478105
 42
0.3581345567762107
 10
-37.84462302576257
 20
2.375139337729105
 42
0.3581345567762107
  0
LWPOLYLINE
  5
5A5A
330
18
100
AcDbEntity
  8
0
370
    13
100
AcDbPolyline
 90
        2
 70
     0
 43
0.0104814
 10
-37.83938740729587
 20
2.316498876751211
 42
0.3893977487990803
 10
-37.89268600448921
 20
2.36542651116814
 42
0.3893977487990803
  0
SOLID
  5
5A5B
330
18
100
AcDbEntity
  8
0
370
    13
100
AcDbTrace
 10
-37.84460897991327
 20
2.316051533604086
 30
0.0
 11
-37.7948197028745
 21
2.331120750135454
 31
0.0
 12
-37.84355849119384
 22
2.331693541826044
 32
0.0
 13
-37.80104716708546
 23
2.346582415290126
 33
0.0
  0
SOLID
  5
5A5C
330
18
100
AcDbEntity
  8
0
370
    13
100
AcDbTrace
 10
-37.84355849119384
 20
2.331693541826044
 30
0.0
 11
-37.80104716708546
 21
2.346582415290126
 31
0.0
 12
-37.85560336635789
 22
2.348000403239087
 32
0.0
 13
-37.82726248361896
 23
2.36785223452453
 33
0.0
  0
LWPOLYLINE
  5
5A5D
330
18
100
AcDbEntity
  8
0
370
    13
100
AcDbPolyline
 90
        7
 70
     0
 43
0.0
 10
-37.09155693898049
 20
2.419866265182063
 42
0.0019568917075044
 10
-37.01651903236646
 20
2.404578858603103
 42
-0.2136964031287707
 10
-36.96548404390786
 20
2.368908269974074
 42
-0.2075585583027768
 10
-36.9584265901595
 20
2.315099842159789
 42
-0.2311984101377718
 10
-37.00806727297385
 20
2.259997681822923
 42
-0.176335766587305
 10
-37.11168293540334
 20
2.256473672392216
 42
-0.2115906095274752
 10
-37.16677945277303
 20
2.305990850964811
  0
LWPOLYLINE
  5
5A5E
330
18
100
AcDbEntity
  8
0
370
    13
100
AcDbPolyline
 90
        3
 70
     0
 43
0.0
 10
-37.37109591765193
 20
2.255462586131335
 10
-37.42612326765193
 20
2.255462586131335
 10
-37.44347878244179
 20
2.311800111131335
  0
LINE
  5
5A5F
330
18
100
AcDbEntity
  8
0
370
    13
100
AcDbLine
 10
-37.45558728113236
 20
2.351105361131335
 30
0.0
 11
-37.49359728015193
 21
2.474489155616477
 31
0.0
  0
LINE
  5
5A60
330
18
100
AcDbEntity
  8
0
370
    13
100
AcDbLine
 10
-37.53160727917149
 20
2.351105361131335
 30
0.0
 11
-37.45558728113236
 21
2.351105361131335
 31
0.0
  0
LINE
  5
5A61
330
18
100
AcDbEntity
  8
0
370
    13
100
AcDbLine
 10
-37.49359728015193
 20
2.474489155616477
 30
0.0
 11
-37.53160727917149
 21
2.351105361131335
 31
0.0
  0
LWPOLYLINE
  5
5A62
330
18
100
AcDbEntity
  8
0
370
    13
100
AcDbPolyline
 90
        4
 70
     0
 43
0.0
 10
-37.44347878244179
 20
2.311800111131335
 10
-37.54371577786209
 20
2.311800111131335
 10
-37.56107129265193
 20
2.255462586131335
 10
-37.61609864265192
 20
2.255462586131335
  0
ARC
  5
5A63
330
18
100
AcDbEntity
  8
0
370
    13
100
AcDbCircle
 10
-37.2504276043597
 20
2.309403825740497
 30
0.0
 40
0.0940653841802545
100
AcDbArc
 50
41.8214311105379
 51
67.21116987831338
  0
ARC
  5
5A64
330
18
100
AcDbEntity
  8
0
370
    13
100
AcDbCircle
 10
-37.25975921845837
 20
2.492604261131341
 30
0.0
 40
0.1067827813404871
100
AcDbArc
 50
295.3783953421117
 51
313.157562911559
  0
ARC
  5
5A65
330
18
100
AcDbEntity
  8
0
370
    13
100
AcDbCircle
 10
-37.22093217786129
 20
2.451196244748515
 30
0.0
 40
0.050018682631104
100
AcDbArc
 50
313.1575629115594
 51
358.6532608214009
  0
ARC
  5
5A66
330
18
100
AcDbEntity
  8
0
370
    13
100
AcDbCircle
 10
-37.23026923737604
 20
2.327441058348393
 30
0.0
 40
0.0670154023022719
100
AcDbArc
 50
5.797666812800192
 51
41.82143111053831
  0
LINE
  5
5A67
330
18
100
AcDbEntity
  8
0
370
    13
100
AcDbLine
 10
-37.32526796845838
 20
2.478192336131335
 30
0.0
 11
-37.32526796845838
 21
2.412683586131334
 31
0.0
  0
LINE
  5
5A68
330
18
100
AcDbEntity
  8
0
370
    13
100
AcDbLine
 10
-37.25562295648318
 20
2.372068161131336
 30
0.0
 11
-37.32526796845838
 21
2.372068161131336
 31
0.0
  0
ARC
  5
5A69
330
18
100
AcDbEntity
  8
0
370
    13
100
AcDbCircle
 10
-37.259008593147
 20
2.445437961131335
 30
0.0
 40
0.032754375
100
AcDbArc
 50
270.0
 51
90.00000482967505
  0
LINE
  5
5A6A
330
18
100
AcDbEntity
  8
0
370
    13
100
AcDbLine
 10
-37.32526796845838
 20
2.412683586131334
 30
0.0
 11
-37.259008593147
 21
2.412683586131334
 31
0.0
  0
LINE
  5
5A6B
330
18
100
AcDbEntity
  8
0
370
    13
100
AcDbLine
 10
-37.259008595908
 20
2.478192336131335
 30
0.0
 11
-37.32526796845838
 21
2.478192336131335
 31
0.0
  0
ARC
  5
5A6C
330
18
100
AcDbEntity
  8
0
370
    13
100
AcDbCircle
 10
-37.26237956845837
 20
2.342599732319961
 30
0.0
 40
0.0465217211886261
100
AcDbArc
 50
270.0
 51
313.2275081247473
  0
ARC
  5
5A6D
330
18
100
AcDbEntity
  8
0
370
    13
100
AcDbCircle
 10
-37.25058799345836
 20
2.366551910343223
 30
0.0
 40
0.1110893242118861
100
AcDbArc
 50
269.9999999999951
 51
297.4526478761187
  0
ARC
  5
5A6E
330
18
100
AcDbEntity
  8
0
370
    13
100
AcDbCircle
 10
-37.23026923737604
 20
2.327441058348393
 30
0.0
 40
0.0670154023022719
100
AcDbArc
 50
297.4526478761237
 51
341.3323115150401
  0
LINE
  5
5A6F
330
18
100
AcDbEntity
  8
0
370
    13
100
AcDbLine
 10
-37.32526796845838
 20
2.296078011131336
 30
0.0
 11
-37.26237956845837
 21
2.296078011131336
 31
0.0
  0
LINE
  5
5A70
330
18
100
AcDbEntity
  8
0
370
    13
100
AcDbLine
 10
-37.37767496845838
 20
2.255462586131336
 30
0.0
 11
-37.25058799345838
 21
2.255462586131336
 31
0.0
  0
ARC
  5
5A71
330
18
100
AcDbEntity
  8
0
370
    13
100
AcDbCircle
 10
-37.25562295648318
 20
2.33541159028565
 30
0.0
 40
0.0366565708456863
100
AcDbArc
 50
313.2275081247476
 51
90.0
  0
LINE
  5
5A72
330
18
100
AcDbEntity
  8
0
370
    13
100
AcDbLine
 10
-37.32526796845838
 20
2.372068161131336
 30
0.0
 11
-37.32526796845838
 21
2.296078011131336
 31
0.0
  0
SOLID
  5
5A73
330
18
100
AcDbEntity
  8
0
370
    13
100
AcDbTrace
 10
-36.9167279955787
 20
2.401034400922115
 30
0.0
 11
-36.7934667315787
 21
2.401034400922115
 31
0.0
 12
-36.9167279955787
 22
2.375149535482115
 32
0.0
 13
-36.7934667315787
 23
2.375149535482115
 33
0.0
  0
LWPOLYLINE
  5
5A74
330
18
100
AcDbEntity
  8
0
370
    13
100
AcDbPolyline
 90
        2
 70
     0
 43
0.00493045056
 10
-36.88189244170418
 20
2.420374273631634
 42
0.2706611322925477
 10
-36.81188906379555
 20
2.431283286226639
 42
0.2706611322925477
  0
SOLID
  5
5A75
330
18
100
AcDbEntity
  8
0
370
    13
100
AcDbTrace
 10
-36.85142923465657
 20
2.43567159879703
 30
0.0
 11
-36.8500738229667
 21
2.414676701103957
 31
0.0
 12
-36.81864612530265
 22
2.446098045127957
 32
0.0
 13
-36.80941147227043
 23
2.430883480436575
 33
0.0
  0
SOLID
  5
5A76
330
18
100
AcDbEntity
  8
0
370
    13
100
AcDbTrace
 10
-36.91672798784721
 20
2.248806741057627
 30
0.0
 11
-36.91672798784721
 21
2.274691606497627
 31
0.0
 12
-36.79346672384721
 22
2.248806741057627
 32
0.0
 13
-36.79346672384721
 23
2.274691606497627
 33
0.0
  0
SOLID
  5
5A77
330
18
100
AcDbEntity
  8
0
370
    13
100
AcDbTrace
 10
-36.7934667315787
 20
2.296262326522115
 30
0.0
 11
-36.9167279955787
 21
2.296262326522115
 31
0.0
 12
-36.7934667315787
 22
2.322147191962115
 32
0.0
 13
-36.9167279955787
 23
2.322147191962115
 33
0.0
  0
SOLID
  5
5A78
330
18
100
AcDbEntity
  8
0
370
    13
100
AcDbTrace
 10
-36.9167279955787
 20
2.322763498282115
 30
0.0
 11
-36.79346941722214
 21
2.400370751321433
 31
0.0
 12
-36.91671881022875
 22
2.298062498281336
 32
0.0
 13
-36.7934667315787
 23
2.374533229162115
 33
0.0
  0
SOLID
  5
5A79
330
18
100
AcDbEntity
  8
0
370
    13
100
AcDbTrace
 10
-36.90022405549209
 20
2.456440744902008
 30
0.0
 11
-36.91513358408071
 21
2.450345452023372
 31
0.0
 12
-36.87673025286756
 22
2.43770336308991
 32
0.0
 13
-36.88938076197308
 23
2.422578006687372
 33
0.0
  0
SOLID
  5
5A7A
330
18
100
AcDbEntity
  8
0
370
    13
100
AcDbTrace
 10
-36.87673025286756
 20
2.43770336308991
 30
0.0
 11
-36.88938076197308
 21
2.422578006687372
 31
0.0
 12
-36.85142923465657
 22
2.43567159879703
 32
0.0
 13
-36.8500738229667
 23
2.414676701103957
 33
0.0
  0
LWPOLYLINE
  5
5A7B
330
18
100
AcDbEntity
  8
0
370
    13
100
AcDbPolyline
 90
        2
 70
     0
 43
0.00493045056
 10
-36.81188906379555
 20
2.431283286226639
 42
0.1790006504245718
 10
-36.79371562564707
 20
2.462067105502534
 42
0.1790006504245718
  0
SOLID
  5
5A7C
330
18
100
AcDbEntity
  8
0
370
    13
100
AcDbTrace
 10
-36.81864612530265
 20
2.446098045127957
 30
0.0
 11
-36.80941147227043
 21
2.430883480436575
 31
0.0
 12
-36.80791396096791
 22
2.470291697178187
 32
0.0
 13
-36.79194050707431
 23
2.462310286192543
 33
0.0
  0
LWPOLYLINE
  5
5A7D
330
18
100
AcDbEntity
  8
0
370
    13
100
AcDbPolyline
 90
        2
 70
     0
 43
0.0104814
 10
-37.85261637506242
 20
2.512256886131337
 10
-37.99725344679554
 20
2.512256886131337
  0
LINE
  5
5A7E
330
18
100
AcDbEntity
  8
0
370
    13
100
AcDbLine
 10
-37.72877369265192
 20
2.517497586131336
 30
0.0
 11
-37.78380104265193
 21
2.517497586131336
 31
0.0
  0
ARC
  5
5A7F
330
18
100
AcDbEntity
  8
0
370
    13
100
AcDbCircle
 10
-37.25525167446822
 20
2.409742329861523
 30
0.0
 40
0.1077552562698128
100
AcDbArc
 50
58.67020583628413
 51
90.00000000000101
  0
LINE
  5
5A80
330
18
100
AcDbEntity
  8
0
370
    13
100
AcDbLine
 10
-37.25525167446824
 20
2.517497586131336
 30
0.0
 11
-37.37767496845838
 21
2.517497586131336
 31
0.0
  0
SOLID
  5
5A81
330
18
100
AcDbEntity
  8
0
370
    13
100
AcDbTrace
 10
-36.81440317661218
 20
2.491741739202102
 30
0.0
 11
-36.79917847836986
 21
2.501967922027457
 31
0.0
 12
-36.82988186933121
 22
2.500859243207884
 32
0.0
 13
-36.82726063048987
 23
2.523495035158064
 33
0.0
  0
LWPOLYLINE
  5
5A82
330
18
100
AcDbEntity
  8
0
370
    13
100
AcDbPolyline
 90
        2
 70
     0
 43
0.00493045056
 10
-36.79801075667858
 20
2.496806460126451
 42
0.2619660936757589
 10
-36.83292798809072
 20
2.522442069484772
 42
0.2656465770789468
  0
SOLID
  5
5A83
330
18
100
AcDbEntity
  8
0
370
    13
100
AcDbTrace
 10
-36.82988186933121
 20
2.500859243207884
 30
0.0
 11
-36.82726063048987
 21
2.523495035158064
 31
0.0
 12
-36.83326850405071
 22
2.500030566978761
 32
0.0
 13
-36.83326850405071
 23
2.524962330760263
 33
0.0
  0
LWPOLYLINE
  5
5A84
330
18
100
AcDbEntity
  8
0
370
    13
100
AcDbPolyline
 90
        2
 70
     0
 43
0.00493045056
 10
-36.87921649165264
 20
2.520459868369471
 42
0.2841209316902218
 10
-36.91482471374607
 20
2.490673265252776
 42
0.2888447634665965
  0
SOLID
  5
5A85
330
18
100
AcDbEntity
  8
0
370
    13
100
AcDbTrace
 10
-36.88734764443827
 20
2.499107795052449
 30
0.0
 11
-36.89977225159545
 21
2.512652890338303
 31
0.0
 12
-36.88214461246746
 22
2.500440457653153
 32
0.0
 13
-36.88374778758451
 23
2.52177762388302
 33
0.0
  0
SOLID
  5
5A86
330
18
100
AcDbEntity
  8
0
370
    13
100
AcDbTrace
 10
-36.88214461246746
 20
2.500440457653153
 30
0.0
 11
-36.88374778758451
 21
2.52177762388302
 31
0.0
 12
-36.87876110971628
 22
2.498894752717686
 32
0.0
 13
-36.87876110971628
 23
2.523008868646433
 33
0.0
  0
LINE
  5
5FB1
330
18
100
AcDbEntity
  8
0
100
AcDbLine
 39
0.27
 10
-49.36536418683002
 20
7.070254654303911
 30
0.0
 11
-46.32622268146295
 21
7.070254654303911
 31
0.0
  0
LINE
  5
5FB2
330
18
100
AcDbEntity
  8
0
100
AcDbLine
 39
0.27
 10
-46.54118634891575
 20
7.11472989584587
 30
0.0
 11
-49.15040051937722
 21
7.11472989584587
 31
0.0
  0
TEXT
  5
5FD6
330
18
100
AcDbEntity
  8
0
100
AcDbText
 10
-49.17089844373291
 20
6.889423380005759
 30
0.0
 40
0.09
  1
BNC COAX CABLE SOLD SEPARATELY
100
AcDbText
  0
TEXT
  5
5FD8
330
18
100
AcDbEntity
  8
0
100
AcDbText
 10
-48.7657934341465
 20
7.179617401830594
 30
0.0
 40
0.12
  1
SM1PD5B ASSEMBLY
 72
     1
 11
-47.84579343414649
 21
7.239617401830593
 31
0.0
100
AcDbText
 73
     2
  0
LINE
  5
6184
330
18
100
AcDbEntity
  8
0
100
AcDbLine
 39
0.27
 10
-46.54118634891575
 20
2.811725309067753
 30
0.0
 11
-49.15040051937722
 21
2.811725309067753
 31
0.0
  0
LINE
  5
6185
330
18
100
AcDbEntity
  8
0
100
AcDbLine
 39
0.27
 10
-49.36536418683002
 20
2.767250067525796
 30
0.0
 11
-46.32622268146295
 21
2.767250067525796
 31
0.0
  0
TEXT
  5
6186
330
18
100
AcDbEntity
  8
0
100
AcDbText
 10
-48.78579343414648
 20
2.870342346028562
 30
0.0
 40
0.12
  1
X-X SECTION VIEW
 72
     1
 11
-47.84579343414647
 21
2.930342346028562
 31
0.0
100
AcDbText
 73
     2
  0
MTEXT
  5
61C8
330
18
100
AcDbEntity
  8
0
100
AcDbMText
 10
-37.34040731997815
 20
1.463693961496995
 30
0.0
 40
0.0864
 41
0.14
 71
     1
 72
     1
  1
HS
 73
     1
 44
1.0
  0
MTEXT
  5
61D8
330
18
100
AcDbEntity
  8
0
100
AcDbMText
 10
-36.39755158847622
 20
1.459566793415478
 30
0.0
 40
0.0864
 41
0.24415242
 71
     1
 72
     1
  1
HS
 73
     1
 44
1.0
  0
MTEXT
  5
6673
330
18
100
AcDbEntity
  8
0
100
AcDbMText
 10
-50.26838397408926
 20
8.527113358342706
 30
0.0
 40
0.1
 41
0.0
 71
     6
 72
     1
  1
COAX CABLE
 73
     1
 44
1.0
  0
TEXT
  5
6836
330
18
100
AcDbEntity
  8
0
100
AcDbText
 10
-50.8508362304582
 20
5.814954672706065
 30
0.0
 40
0.1
  1
BNC CONNECTOR
 72
     2
 11
-49.58416956379153
 21
5.864954672706065
 31
0.0
100
AcDbText
 73
     2
  0
TEXT
  5
68AB
330
18
100
AcDbEntity
  8
0
100
AcDbText
 10
-50.83729848219133
 20
3.531675567353957
 30
0.0
 40
0.1
  1
SM1PD5B ASSEMBLY
 72
     2
 11
-49.303965148858
 21
3.581675567353957
 31
0.0
100
AcDbText
 73
     2
  0
MTEXT
  5
693A
330
18
100
AcDbEntity
  8
0
100
AcDbMText
 10
-39.3174071108351
 20
9.965866859927807
 30
0.0
 40
0.1
 41
2.222061459999999
 71
     4
 72
     5
  1
GERMANIUM PHOTODIODE\P(10 x 10mm ACTIVE AREA)
 73
     1
 44
1.0
  0
LINE
  5
69C5
330
18
100
AcDbEntity
  8
0
100
AcDbLine
 39
0.27
 10
-42.05305873645579
 20
2.767250067525796
 30
0.0
 11
-39.01391723108872
 21
2.767250067525796
 31
0.0
  0
LINE
  5
69C6
330
18
100
AcDbEntity
  8
0
100
AcDbLine
 39
0.27
 10
-39.22888089854152
 20
2.811725309067753
 30
0.0
 11
-41.838095069003
 21
2.811725309067753
 31
0.0
  0
TEXT
  5
69C7
330
18
100
AcDbEntity
  8
0
100
AcDbText
 10
-41.73348798377226
 20
2.859749262967265
 30
0.0
 40
0.12
  1
ELECTRICAL CONNECTION
 72
     1
 11
-40.53348798377226
 21
2.919749262967265
 31
0.0
100
AcDbText
 73
     2
  0
LINE
  5
69CF
330
18
100
AcDbEntity
  8
0
100
AcDbLine
 39
0.27
 10
-42.05305873645579
 20
7.070254654303911
 30
0.0
 11
-39.01391723108872
 21
7.070254654303911
 31
0.0
  0
LINE
  5
69D0
330
18
100
AcDbEntity
  8
0
100
AcDbLine
 39
0.27
 10
-39.22888089854152
 20
7.11472989584587
 30
0.0
 11
-41.838095069003
 21
7.11472989584587
 31
0.0
  0
TEXT
  5
69D1
330
18
100
AcDbEntity
  8
0
100
AcDbText
 10
-41.13348798377226
 20
7.172056224728482
 30
0.0
 40
0.12
  1
FRONT VIEW
 72
     1
 11
-40.53348798377226
 21
7.232056224728482
 31
0.0
100
AcDbText
 73
     2
  0
LINE
  5
6A51
330
18
100
AcDbEntity
  8
0
  6
Continuous
100
AcDbLine
 10
-40.53348798377226
 20
9.867502522423743
 30
0.0
 11
-40.28348798377225
 21
9.867502522423743
 31
0.0
  0
LINE
  5
6A53
330
18
100
AcDbEntity
  8
0
  6
Continuous
100
AcDbLine
 10
-40.53348798377226
 20
8.41252983867038
 30
0.0
 11
-40.28348798377225
 21
8.41252983867038
 31
0.0
  0
TEXT
  5
6A5D
330
18
100
AcDbEntity
  8
0
100
AcDbText
 10
-40.0817826590334
 20
9.810765459976975
 30
0.0
 40
0.1
  1
X
 11
-40.0817826590334
 21
9.860765459976976
 31
0.0
100
AcDbText
 73
     2
  0
TEXT
  5
6A5E
330
18
100
AcDbEntity
  8
0
100
AcDbText
 10
-40.0817826590334
 20
8.366061906697517
 30
0.0
 40
0.1
  1
X
 11
-40.0817826590334
 21
8.416061906697517
 31
0.0
100
AcDbText
 73
     2
  0
MTEXT
  5
6BCE
330
18
100
AcDbEntity
  8
0
100
AcDbMText
 10
-52.25694390341368
 20
11.24211162728317
 30
0.0
 40
0.2
 41
5.42947217
 71
     1
 72
     5
  1
{\fArial|b0|i0|c0|p34;COPYRIGHT \fSymbol|b0|i0|c2|p18;Ó\fArial|b0|i0|c0|p34; 2006 by THORLABS INC.}
 73
     1
 44
1.0
  0
LINE
  5
6E34
330
18
100
AcDbEntity
  8
0
100
AcDbLine
 10
-47.24662894360595
 20
9.360113026591188
 30
0.0
 11
-47.2938345919846
 21
9.62782956202426
 31
0.0
  0
LINE
  5
6E36
330
18
100
AcDbEntity
  8
0
100
AcDbLine
 10
-46.95135335305478
 20
8.889640585646306
 30
0.0
 11
-46.95135335305478
 21
9.925073656512447
 31
0.0
  0
LINE
  5
6E37
330
18
100
AcDbEntity
  8
0
100
AcDbLine
 10
-47.56552658140122
 20
9.11995554627623
 30
0.0
 11
-47.56552658140122
 21
9.694758695882528
 31
0.0
  0
LINE
  5
6E38
330
18
100
AcDbEntity
  8
0
100
AcDbLine
 10
-47.30174705384217
 20
9.11995554627623
 30
0.0
 11
-47.30174705384218
 21
9.694758695882528
 31
0.0
  0
LINE
  5
6E39
330
18
100
AcDbEntity
  8
0
100
AcDbLine
 10
-47.0812746128973
 20
9.131766569898276
 30
0.0
 11
-47.0812746128973
 21
9.682947672260482
 31
0.0
  0
LINE
  5
6E3A
330
18
100
AcDbEntity
  8
0
100
AcDbLine
 10
-46.99072343179492
 20
9.131766569898276
 30
0.0
 11
-46.99072343179492
 21
9.682947672260482
 31
0.0
  0
LINE
  5
6E3C
330
18
100
AcDbEntity
  8
0
100
AcDbLine
 10
-46.00253445541699
 20
8.889640585646306
 30
0.0
 11
-46.00253445541699
 21
9.925073656512447
 31
0.0
  0
LINE
  5
6E3D
330
18
100
AcDbEntity
  8
0
100
AcDbLine
 10
-48.74662894360596
 20
9.269561845488826
 30
0.0
 11
-48.74662894360596
 21
9.54515239666993
 31
0.0
  0
LINE
  5
6E4D
330
18
100
AcDbEntity
  8
0
100
AcDbLine
 10
-47.56552658140122
 20
9.158460056212199
 30
0.0
 11
-47.30174705384218
 21
9.158460056212199
 31
0.0
  0
LINE
  5
6E4E
330
18
100
AcDbEntity
  8
0
100
AcDbLine
 10
-47.56552658140122
 20
9.187194741757782
 30
0.0
 11
-47.30174705384218
 21
9.187194741757782
 31
0.0
  0
LINE
  5
6E4F
330
18
100
AcDbEntity
  8
0
100
AcDbLine
 10
-47.56552658140122
 20
9.222618949791515
 30
0.0
 11
-47.30174705384218
 21
9.222618949791511
 31
0.0
  0
LINE
  5
6E50
330
18
100
AcDbEntity
  8
0
100
AcDbLine
 10
-47.56552658140122
 20
9.263656333677806
 30
0.0
 11
-47.30174705384218
 21
9.263656333677806
 31
0.0
  0
LINE
  5
6E51
330
18
100
AcDbEntity
  8
0
100
AcDbLine
 10
-47.56552658140122
 20
9.309059993273207
 30
0.0
 11
-47.30174705384218
 21
9.309059993273207
 31
0.0
  0
LINE
  5
6E52
330
18
100
AcDbEntity
  8
0
100
AcDbLine
 10
-47.56552658140122
 20
9.357450361356143
 30
0.0
 11
-47.30174705384217
 21
9.357450361356143
 31
0.0
  0
LINE
  5
6E53
330
18
100
AcDbEntity
  8
0
100
AcDbLine
 10
-47.30174705384218
 20
9.11995554627623
 30
0.0
 11
-47.56552658140122
 21
9.11995554627623
 31
0.0
  0
LINE
  5
6E54
330
18
100
AcDbEntity
  8
0
100
AcDbLine
 10
-47.56552658140122
 20
9.124321821985319
 30
0.0
 11
-47.30174705384218
 21
9.124321821985319
 31
0.0
  0
LINE
  5
6E55
330
18
100
AcDbEntity
  8
0
100
AcDbLine
 10
-47.56552658140122
 20
9.137287982034608
 30
0.0
 11
-47.30174705384218
 21
9.137287982034608
 31
0.0
  0
MTEXT
  5
6E58
330
18
100
AcDbEntity
  8
0
100
AcDbMText
 10
-47.11395647850968
 20
8.196730936262841
 30
0.0
 40
0.1
 41
0.0
 71
     6
 72
     1
  1
%%c1.035-40 THREAD\PMATERIAL: ANODIZED ALUMINUM
 73
     1
 44
1.0
  0
LINE
  5
6E6A
330
18
100
AcDbEntity
  8
0
100
AcDbLine
 10
-47.56552658140122
 20
9.151451609268354
 30
0.0
 11
-48.74662894360596
 21
9.269561845488826
 31
0.0
  0
LINE
  5
6E98
330
18
100
AcDbEntity
  8
0
100
AcDbLine
 10
-46.99072343179492
 20
9.218380743126623
 30
0.0
 11
-46.95135335305478
 21
9.218380743126623
 31
0.0
  0
LINE
  5
6E99
330
18
100
AcDbEntity
  8
0
100
AcDbLine
 10
-47.0812746128973
 20
9.360113026591188
 30
0.0
 11
-47.24662894360595
 21
9.360113026591188
 31
0.0
  0
LINE
  5
6E9A
330
18
100
AcDbEntity
  8
0
100
AcDbLine
 10
-47.0812746128973
 20
9.186884680134497
 30
0.0
 11
-47.30174705384218
 21
9.186884680134497
 31
0.0
  0
LINE
  5
6E9D
330
18
100
AcDbEntity
  8
0
100
AcDbLine
 10
-46.99072343179492
 20
9.131766569898276
 30
0.0
 11
-47.0812746128973
 21
9.131766569898276
 31
0.0
  0
LINE
  5
6EA0
330
18
100
AcDbEntity
  8
0
100
AcDbLine
 10
-46.00253445541699
 20
8.889640585646306
 30
0.0
 11
-46.95135335305478
 21
8.889640585646306
 31
0.0
  0
LINE
  5
6EA3
330
18
100
AcDbEntity
  8
0
100
AcDbLine
 10
-47.56552658140122
 20
9.407357121079376
 30
0.0
 11
-47.30174705384217
 21
9.407357121079376
 31
0.0
  0
LINE
  5
6EA4
330
18
100
AcDbEntity
  8
0
100
AcDbLine
 10
-47.56552658140122
 20
9.690392420173438
 30
0.0
 11
-47.30174705384218
 21
9.690392420173438
 31
0.0
  0
LINE
  5
6EA5
330
18
100
AcDbEntity
  8
0
100
AcDbLine
 10
-47.56552658140122
 20
9.67742626012415
 30
0.0
 11
-47.30174705384218
 21
9.67742626012415
 31
0.0
  0
LINE
  5
6EA6
330
18
100
AcDbEntity
  8
0
100
AcDbLine
 10
-47.56552658140122
 20
9.656254185946561
 30
0.0
 11
-47.30174705384218
 21
9.656254185946561
 31
0.0
  0
LINE
  5
6EA7
330
18
100
AcDbEntity
  8
0
100
AcDbLine
 10
-47.56552658140122
 20
9.627519500400977
 30
0.0
 11
-47.30174705384218
 21
9.627519500400977
 31
0.0
  0
LINE
  5
6EA8
330
18
100
AcDbEntity
  8
0
100
AcDbLine
 10
-47.56552658140122
 20
9.592095292367243
 30
0.0
 11
-47.30174705384218
 21
9.592095292367243
 31
0.0
  0
LINE
  5
6EA9
330
18
100
AcDbEntity
  8
0
100
AcDbLine
 10
-47.56552658140122
 20
9.551057908480947
 30
0.0
 11
-47.30174705384218
 21
9.551057908480947
 31
0.0
  0
LINE
  5
6EAA
330
18
100
AcDbEntity
  8
0
100
AcDbLine
 10
-47.56552658140122
 20
9.505654248885553
 30
0.0
 11
-47.30174705384218
 21
9.505654248885553
 31
0.0
  0
LINE
  5
6EAB
330
18
100
AcDbEntity
  8
0
100
AcDbLine
 10
-47.56552658140122
 20
9.457263880802614
 30
0.0
 11
-47.30174705384217
 21
9.457263880802614
 31
0.0
  0
LINE
  5
6EAC
330
18
100
AcDbEntity
  8
0
100
AcDbLine
 10
-47.30174705384218
 20
9.694758695882528
 30
0.0
 11
-47.56552658140122
 21
9.694758695882528
 31
0.0
  0
LINE
  5
6EB2
330
18
100
AcDbEntity
  8
0
100
AcDbLine
 10
-47.56552658140122
 20
9.663262632890404
 30
0.0
 11
-48.74662894360596
 21
9.54515239666993
 31
0.0
  0
LINE
  5
6EB5
330
18
100
AcDbEntity
  8
0
100
AcDbLine
 10
-46.99072343179492
 20
9.596333499032132
 30
0.0
 11
-46.95135335305478
 21
9.596333499032132
 31
0.0
  0
LINE
  5
6EB6
330
18
100
AcDbEntity
  8
0
100
AcDbLine
 10
-46.99072343179492
 20
9.682947672260482
 30
0.0
 11
-47.0812746128973
 21
9.682947672260482
 31
0.0
  0
LINE
  5
6EB7
330
18
100
AcDbEntity
  8
0
100
AcDbLine
 10
-47.0812746128973
 20
9.62782956202426
 30
0.0
 11
-47.30174705384218
 21
9.62782956202426
 31
0.0
  0
LINE
  5
6EB8
330
18
100
AcDbEntity
  8
0
100
AcDbLine
 10
-47.0812746128973
 20
9.454601215567569
 30
0.0
 11
-47.16734393908526
 21
9.454601215567569
 31
0.0
  0
LINE
  5
6EB9
330
18
100
AcDbEntity
  8
0
100
AcDbLine
 10
-47.16734393908526
 20
9.454601215567569
 30
0.0
 11
-47.1978887703891
 21
9.62782956202426
 31
0.0
  0
LINE
  5
6EBA
330
18
100
AcDbEntity
  8
0
100
AcDbLine
 10
-46.00253445541699
 20
9.925073656512447
 30
0.0
 11
-46.95135335305478
 21
9.925073656512447
 31
0.0
  0
ARC
  5
6ECA
330
18
100
AcDbEntity
  8
0
100
AcDbCircle
 39
0.294516
 10
-48.92487699697454
 20
2.492610870681921
 30
0.0
 40
7.015436274175843
100
AcDbArc
 50
88.54407339336939
 51
103.0201711654387
  0
ARC
  5
6ECB
330
18
100
AcDbEntity
  8
0
100
AcDbCircle
 39
0.294516
 10
-48.90175630820375
 20
1.954007063868218
 30
0.0
 40
7.357056198161445
100
AcDbArc
 50
88.79179908633757
 51
102.2211089338909
  0
LINE
  5
6ECC
330
18
100
AcDbEntity
  8
0
100
AcDbLine
 39
0.294516
 10
-50.4645341341968
 20
9.163809329664195
 30
0.0
 11
-50.41986392247274
 21
9.002740341018531
 31
0.0
  0
LINE
  5
6ECD
330
18
100
AcDbEntity
  8
0
100
AcDbLine
 39
0.294516
 10
-50.53804999538652
 20
9.445365654435805
 30
0.0
 11
-50.4963360968992
 21
9.294956350729671
 31
0.0
  0
LINE
  5
6ECE
330
18
100
AcDbEntity
  8
0
100
AcDbLine
 39
0.294516
 10
-50.5011206090057
 20
9.295730497443383
 30
0.0
 11
-50.82993309257666
 21
9.155583923476195
 31
0.0
  0
LINE
  5
6ECF
330
18
100
AcDbEntity
  8
0
100
AcDbLine
 39
0.294516
 10
-50.82993309257666
 20
9.155583923476195
 30
0.0
 11
-50.14334753449396
 21
9.301401896145042
 31
0.0
  0
LINE
  5
6ED0
330
18
100
AcDbEntity
  8
0
100
AcDbLine
 39
0.294516
 10
-50.14334753449396
 20
9.301401896145042
 30
0.0
 11
-50.4645341341968
 21
9.163809329664195
 31
0.0
  0
LEADER
  5
6ED4
330
18
100
AcDbEntity
  8
0
100
AcDbLeader
  3
STANDARD
 76
     3
 10
-49.60772380230945
 20
9.277113358342706
 30
0.0
 10
-49.91838397408926
 20
8.527113358342706
 30
0.0
 10
-50.16838397408927
 20
8.527113358342706
 30
0.0
1001
ACAD
1000
DSTYLE
1002
{
1070
   147
1040
0.09
1070
    77
1070
     0
1070
   289
1070
     0
1002
}
  0
LINE
  5
6F1C
330
18
100
AcDbEntity
  8
0
100
AcDbLine
 10
-46.75253445541698
 20
9.875073656512448
 30
0.0
 11
-46.75253445541698
 21
8.939640585646309
 31
0.0
  0
LINE
  5
6F1D
330
18
100
AcDbEntity
  8
0
100
AcDbLine
 10
-46.65253445541697
 20
8.939640585646309
 30
0.0
 11
-46.65253445541697
 21
9.875073656512448
 31
0.0
  0
LINE
  5
6F1E
330
18
100
AcDbEntity
  8
0
100
AcDbLine
 10
-46.55253445541697
 20
9.875073656512448
 30
0.0
 11
-46.55253445541697
 21
8.939640585646309
 31
0.0
  0
LINE
  5
6F1F
330
18
100
AcDbEntity
  8
0
100
AcDbLine
 10
-46.45253445541697
 20
8.939640585646309
 30
0.0
 11
-46.45253445541697
 21
9.875073656512448
 31
0.0
  0
LINE
  5
6F20
330
18
100
AcDbEntity
  8
0
100
AcDbLine
 10
-46.35253445541697
 20
9.875073656512448
 30
0.0
 11
-46.35253445541697
 21
8.939640585646309
 31
0.0
  0
LINE
  5
6F21
330
18
100
AcDbEntity
  8
0
100
AcDbLine
 10
-46.25253445541697
 20
8.939640585646309
 30
0.0
 11
-46.25253445541697
 21
9.875073656512448
 31
0.0
  0
LINE
  5
6F22
330
18
100
AcDbEntity
  8
0
100
AcDbLine
 10
-46.15253445541697
 20
8.939640585646309
 30
0.0
 11
-46.15253445541697
 21
9.875073656512448
 31
0.0
  0
LINE
  5
6F23
330
18
100
AcDbEntity
  8
0
100
AcDbLine
 10
-46.05253445541698
 20
8.939640585646309
 30
0.0
 11
-46.05253445541698
 21
9.875073656512448
 31
0.0
  0
LINE
  5
6F24
330
18
100
AcDbEntity
  8
0
100
AcDbLine
 10
-46.85253445541697
 20
8.939640585646309
 30
0.0
 11
-46.85253445541697
 21
9.875073656512448
 31
0.0
  0
LINE
  5
6F25
330
18
100
AcDbEntity
  8
0
100
AcDbLine
 10
-46.70253445541697
 20
8.989640585646306
 30
0.0
 11
-46.70253445541697
 21
9.825073656512447
 31
0.0
  0
LINE
  5
6F26
330
18
100
AcDbEntity
  8
0
100
AcDbLine
 10
-46.60253445541696
 20
9.825073656512447
 30
0.0
 11
-46.60253445541696
 21
8.989640585646306
 31
0.0
  0
LINE
  5
6F27
330
18
100
AcDbEntity
  8
0
100
AcDbLine
 10
-46.50253445541696
 20
8.989640585646306
 30
0.0
 11
-46.50253445541697
 21
9.825073656512447
 31
0.0
  0
LINE
  5
6F28
330
18
100
AcDbEntity
  8
0
100
AcDbLine
 10
-46.40253445541698
 20
9.825073656512447
 30
0.0
 11
-46.40253445541698
 21
8.989640585646306
 31
0.0
  0
LINE
  5
6F29
330
18
100
AcDbEntity
  8
0
100
AcDbLine
 10
-46.30253445541697
 20
8.989640585646306
 30
0.0
 11
-46.30253445541697
 21
9.825073656512447
 31
0.0
  0
LINE
  5
6F2A
330
18
100
AcDbEntity
  8
0
100
AcDbLine
 10
-46.20253445541697
 20
8.989640585646306
 30
0.0
 11
-46.20253445541697
 21
9.825073656512447
 31
0.0
  0
LINE
  5
6F2B
330
18
100
AcDbEntity
  8
0
100
AcDbLine
 10
-46.10253445541697
 20
8.989640585646306
 30
0.0
 11
-46.10253445541697
 21
9.825073656512447
 31
0.0
  0
LINE
  5
6F2C
330
18
100
AcDbEntity
  8
0
100
AcDbLine
 10
-46.80253445541697
 20
9.825073656512447
 30
0.0
 11
-46.80253445541697
 21
8.989640585646306
 31
0.0
  0
LINE
  5
6F30
330
18
100
AcDbEntity
  8
0
370
    13
100
AcDbLine
 10
-46.90253445541696
 20
9.40735712107938
 30
0.0
 11
-46.90253445541696
 21
9.473282576867248
 31
0.0
  0
LINE
  5
6F36
330
18
100
AcDbEntity
  8
0
100
AcDbLine
 10
-46.90253445541696
 20
9.825073656512447
 30
0.0
 11
-46.90253445541696
 21
8.989640585646306
 31
0.0
  0
LEADER
  5
6F40
330
18
100
AcDbEntity
  8
0
100
AcDbLeader
  3
STANDARD
 76
     3
 10
-47.43363681762171
 20
9.694758695882528
 30
0.0
 10
-47.64074359880825
 20
10.19475869588252
 30
0.0
 10
-47.89074359880824
 20
10.19475869588252
 30
0.0
1001
ACAD
1000
DSTYLE
1002
{
1070
   147
1040
0.09
1070
    77
1070
     0
1070
   289
1070
     0
1002
}
  0
MTEXT
  5
6F48
330
18
100
AcDbEntity
  8
0
100
AcDbMText
 10
-47.99074359880825
 20
10.19475869588252
 30
0.0
 40
0.1
 41
0.0
 71
     6
 72
     1
  1
BNC CONNECTOR
 73
     1
 44
1.0
  0
LEADER
  5
6F59
330
18
100
AcDbEntity
  8
0
100
AcDbLeader
  3
STANDARD
 76
     3
 10
-46.47694390423589
 20
8.889640585646306
 30
0.0
 10
-46.76395647850968
 20
8.196730936262841
 30
0.0
 10
-47.01395647850968
 20
8.196730936262841
 30
0.0
1001
ACAD
1000
DSTYLE
1002
{
1070
   147
1040
0.09
1070
    77
1070
     0
1070
   289
1070
     0
1002
}
  0
LINE
  5
6F5F
330
18
100
AcDbEntity
  8
0
100
AcDbLine
 10
-46.95135335305478
 20
9.965073656512448
 30
0.0
 11
-46.95135335305478
 21
10.46070416362196
 31
0.0
  0
LINE
  5
6F60
330
18
100
AcDbEntity
  8
0
100
AcDbLine
 10
-46.00253445541699
 20
9.965073656512448
 30
0.0
 11
-46.00253445541699
 21
10.46070416362196
 31
0.0
  0
LINE
  5
6F61
330
18
100
AcDbEntity
  8
0
100
AcDbLine
 10
-47.13135335305477
 20
10.42070416362196
 30
0.0
 11
-47.31135335305476
 21
10.42070416362196
 31
0.0
  0
LINE
  5
6F62
330
18
100
AcDbEntity
  8
0
100
AcDbLine
 10
-45.82253445541698
 20
10.42070416362196
 30
0.0
 11
-45.64253445541697
 21
10.42070416362196
 31
0.0
  0
SOLID
  5
6F63
330
18
100
AcDbEntity
  8
0
100
AcDbTrace
 10
-47.13135335305477
 20
10.45070416362195
 30
0.0
 11
-47.13135335305477
 21
10.39070416362197
 31
0.0
 12
-46.95135335305478
 22
10.42070416362196
 32
0.0
 13
-46.95135335305478
 23
10.42070416362196
 33
0.0
  0
SOLID
  5
6F64
330
18
100
AcDbEntity
  8
0
100
AcDbTrace
 10
-45.82253445541698
 20
10.45070416362195
 30
0.0
 11
-45.82253445541698
 21
10.39070416362197
 31
0.0
 12
-46.00253445541699
 22
10.42070416362196
 32
0.0
 13
-46.00253445541699
 23
10.42070416362196
 33
0.0
  0
MTEXT
  5
6F65
330
18
100
AcDbEntity
  8
0
370
    13
100
AcDbMText
 10
-46.47544665691692
 20
10.42070416362196
 30
0.0
 40
0.1
 41
0.0
 71
     5
 72
     1
  1
0.95"\P(24.1mm)
 73
     1
 44
1.0
  0
LINE
  5
6FA6
102
{ACAD_REACTORS
330
6FFD
102
}
330
18
100
AcDbEntity
  8
0
100
AcDbLine
 10
-48.63711761943896
 20
4.268501716235991
 30
0.0
 11
-47.4973538399114
 21
4.268501716235991
 31
0.0
  0
LINE
  5
6FA7
102
{ACAD_REACTORS
330
6FFD
102
}
330
18
100
AcDbEntity
  8
0
100
AcDbLine
 10
-47.21388927298227
 20
4.112005653243863
 30
0.0
 11
-48.63711761943896
 21
4.112005653243863
 31
0.0
  0
LINE
  5
6FA9
330
18
100
AcDbEntity
  8
0
100
AcDbLine
 10
-47.5523538399114
 20
4.593304865842291
 30
0.0
 11
-47.51235383991139
 21
4.593304865842291
 31
0.0
  0
LINE
  5
6FAA
102
{ACAD_REACTORS
330
6FFD
102
}
330
18
100
AcDbEntity
  8
0
100
AcDbLine
 10
-48.63711761943896
 20
5.508659196550952
 30
0.0
 11
-47.4973538399114
 21
5.508659196550952
 31
0.0
  0
LINE
  5
6FAB
102
{ACAD_REACTORS
330
6FFD
102
}
330
18
100
AcDbEntity
  8
0
100
AcDbLine
 10
-47.21388927298227
 20
5.665155259543074
 30
0.0
 11
-48.63711761943896
 21
5.665155259543074
 31
0.0
  0
LINE
  5
6FB0
102
{ACAD_REACTORS
330
6FFD
102
}
330
18
100
AcDbEntity
  8
0
100
AcDbLine
 10
-48.63711761943896
 20
4.112005653243863
 30
0.0
 11
-48.63711761943896
 21
5.665155259543074
 31
0.0
  0
LINE
  5
6FB2
330
18
100
AcDbEntity
  8
0
100
AcDbLine
 10
-47.5523538399114
 20
4.593304865842291
 30
0.0
 11
-47.5523538399114
 21
5.183856046944652
 31
0.0
  0
ARC
  5
6FB3
330
18
100
AcDbEntity
  8
0
100
AcDbCircle
 10
-49.00621210762794
 20
4.888580456393468
 30
0.0
 40
0.1358267716535433
100
AcDbArc
 50
313.4287230776464
 51
46.57127692235294
  0
ARC
  5
6FB4
330
18
100
AcDbEntity
  8
0
100
AcDbCircle
 10
-49.00621210762794
 20
4.888580456393468
 30
0.0
 40
0.1358267716535433
100
AcDbArc
 50
133.4287230776463
 51
226.5712769223529
  0
LINE
  5
6FB5
330
18
100
AcDbEntity
  8
0
100
AcDbLine
 10
-49.25719635959644
 20
4.605115889464334
 30
0.0
 11
-49.25719635959644
 21
5.172045023322601
 31
0.0
  0
LINE
  5
6FB6
330
18
100
AcDbEntity
  8
0
100
AcDbLine
 10
-49.09958644798725
 20
4.789938961776402
 30
0.0
 11
-48.91283776726864
 21
4.789938961776402
 31
0.0
  0
LINE
  5
6FB7
330
18
100
AcDbEntity
  8
0
100
AcDbLine
 10
-49.25719635959644
 20
4.605115889464334
 30
0.0
 11
-48.63711761943896
 21
4.605115889464334
 31
0.0
  0
CIRCLE
  5
6FB8
330
18
100
AcDbEntity
  8
0
100
AcDbCircle
 10
-49.00621210762794
 20
4.888580456393468
 30
0.0
 40
0.0590551181102365
  0
LINE
  5
6FBC
330
18
100
AcDbEntity
  8
0
100
AcDbLine
 10
-49.09958644798725
 20
4.98722195101054
 30
0.0
 11
-48.91283776726864
 21
4.98722195101054
 31
0.0
  0
LINE
  5
6FBD
330
18
100
AcDbEntity
  8
0
100
AcDbLine
 10
-49.25719635959644
 20
5.172045023322601
 30
0.0
 11
-48.63711761943896
 21
5.172045023322601
 31
0.0
  0
LINE
  5
6FC0
102
{ACAD_REACTORS
330
6FFD
102
}
330
18
100
AcDbEntity
  8
0
100
AcDbLine
 10
-47.21388927298228
 20
4.112005653243863
 30
0.0
 11
-47.21388927298227
 21
5.665155259543074
 31
0.0
  0
LINE
  5
6FC3
102
{ACAD_REACTORS
330
6FFD
102
}
330
18
100
AcDbEntity
  8
0
100
AcDbLine
 10
-47.42058218636809
 20
4.288580456393471
 30
0.0
 11
-47.42058218636809
 21
5.488580456393472
 31
0.0
  0
LINE
  5
6FC4
102
{ACAD_REACTORS
330
6FFD
102
}
330
18
100
AcDbEntity
  8
0
100
AcDbLine
 10
-47.4973538399114
 20
4.268501716235984
 30
0.0
 11
-47.4973538399114
 21
5.508659196550952
 31
0.0
  0
LINE
  5
6FC8
330
18
100
AcDbEntity
  8
0
100
AcDbLine
 10
-47.42058218636809
 20
4.309249747732054
 30
0.0
 11
-47.21388927298227
 21
4.309249747732054
 31
0.0
  0
LINE
  5
6FC9
102
{ACAD_REACTORS
330
6FFD
102
}
330
18
100
AcDbEntity
  8
0
  6
HIDDEN
100
AcDbLine
 10
-47.42058218636809
 20
4.288580456393471
 30
0.0
 11
-47.21388927298227
 21
4.288580456393471
 31
0.0
  0
LINE
  5
6FCC
102
{ACAD_REACTORS
330
6FFD
102
}
330
18
100
AcDbEntity
  8
0
100
AcDbLine
 10
-47.4973538399114
 20
4.622832424897406
 30
0.0
 11
-47.42058218636809
 21
4.622832424897406
 31
0.0
  0
LINE
  5
6FD0
102
{ACAD_REACTORS
330
6FFD
102
}
330
18
100
AcDbEntity
  8
0
100
AcDbLine
 10
-47.4973538399114
 20
5.154328487889535
 30
0.0
 11
-47.42058218636809
 21
5.154328487889535
 31
0.0
  0
LINE
  5
6FD2
330
18
100
AcDbEntity
  8
0
100
AcDbLine
 10
-47.42058218636809
 20
5.467911165054887
 30
0.0
 11
-47.21388927298227
 21
5.467911165054887
 31
0.0
  0
LINE
  5
6FD3
102
{ACAD_REACTORS
330
6FFD
102
}
330
18
100
AcDbEntity
  8
0
  6
HIDDEN
100
AcDbLine
 10
-47.42058218636809
 20
5.488580456393472
 30
0.0
 11
-47.21388927298227
 21
5.488580456393472
 31
0.0
  0
LINE
  5
6FDE
330
18
100
AcDbEntity
  8
0
100
AcDbLine
 10
-47.51235383991139
 20
4.593304865842291
 30
0.0
 11
-47.51235383991139
 21
5.183856046944652
 31
0.0
  0
LEADER
  5
6FE4
330
18
100
AcDbEntity
  8
0
100
AcDbLeader
  3
STANDARD
 76
     3
 10
-48.9471569895177
 20
5.172045023322601
 30
0.0
 10
-49.23416956379153
 20
5.864954672706065
 30
0.0
 10
-49.48416956379152
 20
5.864954672706065
 30
0.0
1001
ACAD
1000
DSTYLE
1002
{
1070
   147
1040
0.09
1070
    77
1070
     0
1070
   289
1070
     0
1002
}
  0
LEADER
  5
6FEB
330
18
100
AcDbEntity
  8
0
100
AcDbLeader
  3
STANDARD
 76
     3
 10
-48.42363506296809
 20
4.112005653243863
 30
0.0
 10
-48.953965148858
 20
3.581675567353957
 30
0.0
 10
-49.203965148858
 20
3.581675567353957
 30
0.0
1001
ACAD
1000
DSTYLE
1002
{
1070
   147
1040
0.09
1070
    77
1070
     0
1070
   289
1070
     0
1002
}
  0
HATCH
  5
6FFD
330
18
100
AcDbEntity
  8
0
100
AcDbHatch
 10
0.0
 20
0.0
 30
0.0
210
0.0
220
0.0
230
1.0
  2
ANSI31
 70
     0
 71
     1
 91
        2
 92
        7
 72
     0
 73
     1
 93
        8
 10
-47.21388927298225
 20
5.665155259543074
 10
-48.63711761943896
 20
5.665155259543071
 10
-48.63711761943896
 20
5.508659196550952
 10
-47.49735383991143
 20
5.508659196550952
 10
-47.4973538399114
 20
5.154328487889535
 10
-47.42058218636809
 20
5.154328487889535
 10
-47.4205821863681
 20
5.488580456393473
 10
-47.21388927298227
 20
5.488580456393472
 97
        8
330
6FAB
330
6FB0
330
6FAA
330
6FC4
330
6FD0
330
6FC3
330
6FD3
330
6FC0
 92
        7
 72
     0
 73
     1
 93
        8
 10
-47.21388927298228
 20
4.288580456393471
 10
-47.42058218636809
 20
4.288580456393471
 10
-47.42058218636809
 20
4.622832424897406
 10
-47.4973538399114
 20
4.622832424897406
 10
-47.4973538399114
 20
4.268501716235991
 10
-48.63711761943896
 20
4.268501716235991
 10
-48.63711761943896
 20
4.112005653243863
 10
-47.21388927298227
 20
4.112005653243861
 97
        8
330
6FC9
330
6FC3
330
6FCC
330
6FC4
330
6FA6
330
6FB0
330
6FA7
330
6FC0
 75
     0
 76
     1
 52
0.0
 41
0.5
 77
     0
 78
     1
 53
45.0
 43
0.0
 44
0.0
 45
-0.0441941738241592
 46
0.0441941738241592
 79
     0
 47
0.0097027208513397
 98
        2
 10
-47.74870519402765
 20
5.606676489907164
 10
-47.75841189271025
 20
4.190079216195073
  0
LINE
  5
7001
330
18
100
AcDbEntity
  8
0
100
AcDbLine
 10
-47.51235383991139
 20
5.183856046944652
 30
0.0
 11
-47.5523538399114
 21
5.183856046944652
 31
0.0
  0
LEADER
  5
7011
330
18
100
AcDbEntity
  8
0
100
AcDbLeader
  3
STANDARD
 76
     3
 10
-47.51235383991139
 20
4.888580456393471
 30
0.0
 10
-46.71388927298226
 20
5.6870450233226
 30
0.0
 10
-46.46388927298228
 20
5.6870450233226
 30
0.0
1001
ACAD
1000
DSTYLE
1002
{
1070
   147
1040
0.09
1070
    77
1070
     0
1070
   289
1070
     0
1002
}
  0
TEXT
  5
7018
330
18
100
AcDbEntity
  8
0
100
AcDbText
 10
-46.36388927298226
 20
5.6370450233226
 30
0.0
 40
0.1
  1
PHOTODIODE
 11
-46.36388927298226
 21
5.6870450233226
 31
0.0
100
AcDbText
 73
     2
  0
LEADER
  5
7020
330
18
100
AcDbEntity
  8
0
100
AcDbLeader
  3
STANDARD
 76
     3
 10
-47.31723572967517
 20
4.309249747732053
 30
0.0
 10
-46.71388927298226
 20
4.912596204424955
 30
0.0
 10
-46.46388927298228
 20
4.912596204424955
 30
0.0
1001
ACAD
1000
DSTYLE
1002
{
1070
   147
1040
0.09
1070
    77
1070
     0
1070
   289
1070
     0
1002
}
  0
TEXT
  5
702A
330
18
100
AcDbEntity
  8
0
100
AcDbText
 10
-46.36388927298226
 20
4.862596204424955
 30
0.0
 40
0.1
  1
%%C0.8-36 THREAD
 11
-46.36388927298226
 21
4.912596204424955
 31
0.0
100
AcDbText
 73
     2
  0
LINE
  5
7031
330
18
100
AcDbEntity
  8
0
100
AcDbLine
 10
-47.42058218636809
 20
5.528580456393472
 30
0.0
 11
-47.42058218636809
 21
6.205155259543074
 31
0.0
  0
LINE
  5
7032
330
18
100
AcDbEntity
  8
0
100
AcDbLine
 10
-47.21388927298227
 20
5.705155259543074
 30
0.0
 11
-47.21388927298227
 21
6.205155259543074
 31
0.0
  0
LINE
  5
7033
330
18
100
AcDbEntity
  8
0
100
AcDbLine
 10
-47.03388927298226
 20
6.165155259543074
 30
0.0
 11
-46.85388927298227
 21
6.165155259543074
 31
0.0
  0
LINE
  5
7034
330
18
100
AcDbEntity
  8
0
100
AcDbLine
 10
-47.60058218636809
 20
6.165155259543074
 30
0.0
 11
-47.78058218636809
 21
6.165155259543074
 31
0.0
  0
SOLID
  5
7035
330
18
100
AcDbEntity
  8
0
100
AcDbTrace
 10
-47.03388927298226
 20
6.195155259543074
 30
0.0
 11
-47.03388927298226
 21
6.135155259543074
 31
0.0
 12
-47.21388927298227
 22
6.165155259543074
 32
0.0
 13
-47.21388927298227
 23
6.165155259543074
 33
0.0
  0
SOLID
  5
7036
330
18
100
AcDbEntity
  8
0
100
AcDbTrace
 10
-47.60058218636809
 20
6.195155259543074
 30
0.0
 11
-47.60058218636809
 21
6.135155259543074
 31
0.0
 12
-47.42058218636809
 22
6.165155259543074
 32
0.0
 13
-47.42058218636809
 23
6.165155259543074
 33
0.0
  0
MTEXT
  5
7037
330
18
100
AcDbEntity
  8
0
100
AcDbMText
 10
-47.88058218636809
 20
6.165155259543074
 30
0.0
 40
0.1
 41
0.0
 71
     6
 72
     1
  1
0.14"\P(3.5mm)
 73
     1
 44
1.0
  0
CIRCLE
  5
7054
102
{ACAD_REACTORS
330
7075
102
}
330
18
100
AcDbEntity
  8
0
100
AcDbCircle
 10
-40.53348798377226
 20
9.099785986990672
 30
0.0
 40
0.1771653543307087
  0
CIRCLE
  5
7056
330
18
100
AcDbEntity
  8
0
100
AcDbCircle
 10
-40.53348798377226
 20
9.099785986990672
 30
0.0
 40
0.3862204724409449
  0
CIRCLE
  5
7058
330
18
100
AcDbEntity
  8
0
100
AcDbCircle
 10
-40.53348798377226
 20
9.099785986990672
 30
0.0
 40
0.5177165354330714
  0
CIRCLE
  5
705F
330
18
100
AcDbEntity
  8
0
  6
HIDDEN2
100
AcDbCircle
 10
-40.53348798377226
 20
9.099785986990672
 30
0.0
 40
0.5078740200000002
  0
CIRCLE
  5
7063
330
18
100
AcDbEntity
  8
0
  6
HIDDEN2
100
AcDbCircle
 10
-40.53348798377226
 20
9.099785986990672
 30
0.0
 40
0.4
  0
LINE
  5
7064
330
18
100
AcDbEntity
  8
0
100
AcDbLine
 10
-40.62348798377225
 20
9.099785986990672
 30
0.0
 11
-40.44348798377225
 21
9.099785986990672
 31
0.0
  0
LINE
  5
7065
330
18
100
AcDbEntity
  8
0
100
AcDbLine
 10
-40.53348798377226
 20
9.009785986990673
 30
0.0
 11
-40.53348798377226
 21
9.189785986990672
 31
0.0
  0
LINE
  5
7069
330
18
100
AcDbEntity
  8
0
  6
CENTER2
100
AcDbLine
 10
-40.66348798377226
 20
9.099785986990672
 30
0.0
 11
-41.30120451920532
 21
9.099785986990672
 31
0.0
  0
LINE
  5
706A
330
18
100
AcDbEntity
  8
0
  6
CENTER2
100
AcDbLine
 10
-40.53348798377226
 20
9.229785986990671
 30
0.0
 11
-40.53348798377226
 21
9.867502522423743
 31
0.0
  0
LINE
  5
706B
330
18
100
AcDbEntity
  8
0
  6
CENTER2
100
AcDbLine
 10
-40.40348798377226
 20
9.099785986990672
 30
0.0
 11
-39.76577144833917
 21
9.099785986990672
 31
0.0
  0
LINE
  5
706C
330
18
100
AcDbEntity
  8
0
  6
CENTER2
100
AcDbLine
 10
-40.53348798377226
 20
8.969785986990672
 30
0.0
 11
-40.53348798377226
 21
8.41252983867038
 31
0.0
  0
HATCH
  5
7075
330
18
100
AcDbEntity
  8
0
100
AcDbHatch
 10
0.0
 20
0.0
 30
0.0
210
0.0
220
0.0
230
1.0
  2
ANSI31
 70
     0
 71
     1
 91
        1
 92
        7
 72
     1
 73
     1
 93
        2
 10
-40.71065333810297
 20
9.099785986990672
 42
1.0
 10
-40.35632262944155
 20
9.099785986990672
 42
1.0
 97
        1
330
7054
 75
     0
 76
     1
 52
0.0
 41
0.5
 77
     0
 78
     1
 53
45.0
 43
0.0
 44
0.0
 45
-0.0441941738241592
 46
0.0441941738241592
 79
     0
 47
0.0016434945265587
 98
        1
 10
-40.60862417813001
 20
9.230034898380502
  0
LEADER
  5
707D
330
18
100
AcDbEntity
  8
0
100
AcDbLeader
  3
STANDARD
 76
     3
 10
-40.46984837346546
 20
9.163425597297461
 30
0.0
 10
-39.66740711083512
 20
9.965866859927807
 30
0.0
 10
-39.41740711083512
 20
9.965866859927807
 30
0.0
1001
ACAD
1000
DSTYLE
1002
{
1070
   147
1040
0.09
1070
    77
1070
     0
1070
   289
1070
     0
1002
}
  0
LEADER
  5
7087
330
18
100
AcDbEntity
  8
0
100
AcDbLeader
  3
STANDARD
 76
     3
 10
-40.4082131603337
 20
8.974511163552111
 30
0.0
 10
-39.66740711083512
 20
8.233705114053535
 30
0.0
 10
-39.41740711083512
 20
8.233705114053535
 30
0.0
1001
ACAD
1000
DSTYLE
1002
{
1070
   147
1040
0.09
1070
    77
1070
     0
1070
   289
1070
     0
1002
}
  0
MTEXT
  5
708E
330
18
100
AcDbEntity
  8
0
100
AcDbMText
 10
-39.3174071108351
 20
8.233705114053535
 30
0.0
 40
0.1
 41
2.696221809999998
 71
     4
 72
     5
  1
%%C9.0mm CLEAR APPERTURE
 73
     1
 44
1.0
  0
LINE
  5
70E9
330
18
100
AcDbEntity
  8
0
  6
Continuous
100
AcDbLine
 10
-42.56848798377226
 20
4.693623744474097
 30
0.0
 11
-42.56848798377226
 21
6.071568724576088
 31
0.0
  0
LINE
  5
70EA
330
18
100
AcDbEntity
  8
0
100
AcDbLine
 10
-37.99848798377226
 20
4.943623744474097
 30
0.0
 11
-37.99848798377226
 21
6.071568724576084
 31
0.0
  0
LINE
  5
70EB
330
18
100
AcDbEntity
  8
0
  6
Continuous
100
AcDbLine
 10
-39.99848798377225
 20
4.693623744474097
 30
0.0
 11
-37.99848798377226
 21
4.693623744474097
 31
0.0
  0
LINE
  5
70EC
330
18
100
AcDbEntity
  8
0
  6
Continuous
100
AcDbLine
 10
-41.06848798377225
 20
4.693623744474097
 30
0.0
 11
-42.56848798377226
 21
4.693623744474097
 31
0.0
  0
MTEXT
  5
70ED
330
18
100
AcDbEntity
  8
0
100
AcDbMText
 10
-41.68759908183962
 20
4.821872851098424
 30
0.0
 40
0.1
 41
0.0
 71
     4
 72
     1
  1
ANODE
 73
     1
 44
1.0
  0
TEXT
  5
70EE
330
18
100
AcDbEntity
  8
0
100
AcDbText
 10
-40.98673459669904
 20
3.816594211642984
 30
0.0
 40
0.1
  1
PHOTODIODE
 72
     2
 11
-40.05340126336571
 21
3.866594211642984
 31
0.0
100
AcDbText
 73
     2
  0
CIRCLE
  5
70F0
330
18
100
AcDbEntity
  8
0
100
AcDbCircle
 10
-40.53348798377226
 20
4.693623744474097
 30
0.0
 40
0.5350000000000002
  0
MTEXT
  5
70F1
330
18
100
AcDbEntity
  8
0
100
AcDbMText
 10
-39.85387951230578
 20
4.832620723009776
 30
0.0
 40
0.1
 41
0.0
 71
     4
 72
     1
  1
CATHODE
 73
     1
 44
1.0
  0
TEXT
  5
70F2
330
18
100
AcDbEntity
  8
0
100
AcDbText
 10
-37.49848798377225
 20
4.643623744474097
 30
0.0
 40
0.1
  1
BNC CONNECTOR
 11
-37.49848798377225
 21
4.693623744474097
 31
0.0
100
AcDbText
 73
     2
  0
ARC
  5
70F3
330
18
100
AcDbEntity
  8
0
100
AcDbCircle
 10
-37.99848798377226
 20
4.693623744474097
 30
0.0
 40
0.2499999999999994
100
AcDbArc
 50
197.398174049753
 51
162.6018259502477
  0
CIRCLE
  5
70F4
330
18
100
AcDbEntity
  8
0
100
AcDbCircle
 10
-37.99848798377226
 20
4.693623744474097
 30
0.0
 40
0.0747525953920659
  0
ARC
  5
70F5
330
18
100
AcDbEntity
  8
0
100
AcDbCircle
 10
-37.99848798377226
 20
4.693623744474097
 30
0.0
 40
0.25
100
AcDbArc
 50
163.0397726379451
 51
163.0397726379453
  0
HATCH
  5
70F6
330
18
100
AcDbEntity
  8
0
100
AcDbHatch
 10
0.0
 20
0.0
 30
0.0
210
0.0
220
0.0
230
1.0
  2
SOLID
 70
     1
 71
     1
 91
        1
 92
        7
 72
     1
 73
     1
 93
        2
 10
-38.04102074114531
 20
4.693623744474097
 42
1.0
 10
-37.95595522639919
 20
4.693623744474097
 42
1.0
 97
        1
330
70F7
 75
     0
 76
     1
 47
0.001927231907853
 98
        1
 10
-37.97220622480539
 20
4.710318642266697
  0
CIRCLE
  5
70F7
102
{ACAD_REACTORS
330
70F6
102
}
330
18
100
AcDbEntity
  8
0
100
AcDbCircle
 10
-37.99848798377226
 20
4.693623744474097
 30
0.0
 40
0.0425327573730543
  0
HATCH
  5
70F8
330
18
100
AcDbEntity
  8
0
100
AcDbHatch
 10
0.0
 20
0.0
 30
0.0
210
0.0
220
0.0
230
1.0
  2
SOLID
 70
     1
 71
     0
 91
        3
 92
        7
 72
     1
 73
     1
 93
        4
 10
-37.99848798377226
 20
4.968623744474097
 42
0.0
 10
-37.99848798377226
 20
4.943623744474097
 42
-0.0250156445618217
 10
-37.97351925332796
 20
4.942373744474098
 42
0.0125058660989343
 10
-37.97348798377226
 20
4.943623744474097
 42
0.4142135623731035
 97
        0
 92
        7
 72
     1
 73
     1
 93
        4
 10
-37.99848798377226
 20
4.968623744474097
 42
0.4142135623731035
 10
-38.02348798377225
 20
4.943623744474097
 42
0.0125058660989343
 10
-38.02345671421655
 20
4.942373744474098
 42
-0.0250156445618218
 10
-37.99848798377226
 20
4.943623744474098
 42
0.0
 97
        0
 92
        7
 72
     1
 73
     1
 93
        2
 10
-37.97351925332796
 20
4.942373744474097
 42
0.0500626174321772
 10
-38.02345671421655
 20
4.942373744474098
 42
0.9511897312117479
 97
        0
 75
     0
 76
     1
 47
0.0006330533653554
 98
        3
 10
-37.98648908071382
 20
4.95333944696967
 10
-38.01372068437078
 20
4.950174184453704
 10
-38.00232141736541
 20
4.930549529341436
  0
CIRCLE
  5
70F9
330
18
100
AcDbEntity
  8
0
100
AcDbCircle
 10
-37.99848798377226
 20
4.943623744474097
 30
0.0
 40
0.025
  0
LINE
  5
70FA
330
18
100
AcDbEntity
  8
0
100
AcDbLine
 10
-42.56848798377226
 20
6.071568724576088
 30
0.0
 11
-37.99848798377226
 21
6.071568724576085
 31
0.0
  0
SOLID
  5
7130
330
18
100
AcDbEntity
  8
0
100
AcDbTrace
 10
-40.29141424476957
 20
9.83526070243459
 30
0.0
 11
-40.29141424476957
 21
9.895260702434587
 31
0.0
 12
-40.11141424476957
 22
9.865260702434587
 32
0.0
 13
-40.11141424476957
 23
9.865260702434587
 33
0.0
  0
SOLID
  5
7131
330
18
100
AcDbEntity
  8
0
100
AcDbTrace
 10
-40.29141424476957
 20
8.390690247375058
 30
0.0
 11
-40.29141424476957
 21
8.450690247375057
 31
0.0
 12
-40.11141424476957
 22
8.420690247375057
 32
0.0
 13
-40.11141424476957
 23
8.420690247375057
 33
0.0
  0
LINE
  5
7132
330
18
100
AcDbEntity
  8
0
100
AcDbLine
 10
-40.26598798377224
 20
4.693623744474097
 30
0.0
 11
-39.99848798377225
 21
4.693623744474097
 31
0.0
  0
LINE
  5
7133
330
18
100
AcDbEntity
  8
0
100
AcDbLine
 10
-41.06848798377225
 20
4.693623744474097
 30
0.0
 11
-40.80098798377226
 21
4.693623744474098
 31
0.0
  0
LINE
  5
7134
330
18
100
AcDbEntity
  8
0
100
AcDbLine
 10
-40.80098798377226
 20
4.393623744474099
 30
0.0
 11
-40.26598798377224
 21
4.693623744474097
 31
0.0
  0
LINE
  5
7135
330
18
100
AcDbEntity
  8
0
100
AcDbLine
 10
-40.80098798377226
 20
4.693623744474097
 30
0.0
 11
-40.80098798377226
 21
4.393623744474099
 31
0.0
  0
LINE
  5
7136
330
18
100
AcDbEntity
  8
0
100
AcDbLine
 10
-40.26598798377224
 20
4.929689432862588
 30
0.0
 11
-40.26598798377224
 21
4.457558056085608
 31
0.0
  0
LINE
  5
7137
330
18
100
AcDbEntity
  8
0
100
AcDbLine
 10
-40.80098798377226
 20
4.993623744474097
 30
0.0
 11
-40.26598798377224
 21
4.693623744474097
 31
0.0
  0
LINE
  5
7138
330
18
100
AcDbEntity
  8
0
100
AcDbLine
 10
-40.80098798377226
 20
4.693623744474097
 30
0.0
 11
-40.80098798377226
 21
4.993623744474097
 31
0.0
  0
LINE
  5
7139
330
18
100
AcDbEntity
  8
0
100
AcDbLine
 10
-41.76623585735423
 20
1.364327528218221
 30
0.0
 11
-46.24765194947313
 21
1.364327528218221
 31
0.0
  0
LINE
  5
713A
330
18
100
AcDbEntity
  8
0
100
AcDbLine
 10
-46.1763769420438
 20
1.408832553696413
 30
0.0
 11
-41.83751086478356
 21
1.408832553696413
 31
0.0
  0
TEXT
  5
713B
330
18
100
AcDbEntity
  8
0
100
AcDbText
 10
-46.10308299708675
 20
1.443994126457254
 30
0.0
 40
0.1125
  1
INFORMATION ONLY, NOT FOR MANUFACTURING
100
AcDbText
  0
ENDSEC
  0
SECTION
  2
OBJECTS
  0
DICTIONARY
  5
C
330
0
100
AcDbDictionary
281
     1
  3
ACAD_GROUP
350
D
  3
ACAD_LAYOUT
350
5DBF
  3
ACAD_MLINESTYLE
350
E
  3
ACAD_PLOTSETTINGS
350
5DC0
  3
ACAD_PLOTSTYLENAME
350
5DBD
  3
AcadDim
350
6A4F
  3
AcDbVariableDictionary
350
60EA
  3
CONTENTDICTIONARY
350
5903
  0
DICTIONARY
  5
D
102
{ACAD_REACTORS
330
C
102
}
330
C
100
AcDbDictionary
281
     1
  0
DICTIONARY
  5
5DBF
102
{ACAD_REACTORS
330
C
102
}
330
C
100
AcDbDictionary
281
     1
  3
Layout1
350
5DC2
  3
Model
350
5DC1
  0
DICTIONARY
  5
E
102
{ACAD_REACTORS
330
C
102
}
330
C
100
AcDbDictionary
281
     1
  3
STANDARD
350
1B
  0
DICTIONARY
  5
5DC0
102
{ACAD_REACTORS
330
C
102
}
330
C
100
AcDbDictionary
281
     1
  0
ACDBDICTIONARYWDFLT
  5
5DBD
102
{ACAD_REACTORS
330
C
102
}
330
C
100
AcDbDictionary
281
     1
  3
Normal
350
5DBE
100
AcDbDictionaryWithDefault
340
5DBE
  0
XRECORD
  5
6A4F
102
{ACAD_REACTORS
330
C
102
}
330
C
100
AcDbXrecord
280
     1
 90
   990106
  3

 60
     0
 61
     0
 62
     1
 63
     3
 64
     0
 65
     0
 66
     0
 67
     3
 68
     1
 69
     0
 70
     0
 71
     0
 72
     0
 40
0.0
170
     0
  0
DICTIONARY
  5
60EA
102
{ACAD_REACTORS
330
C
102
}
330
C
100
AcDbDictionary
281
     1
  3
SORTENTS
350
60EB
  0
DICTIONARY
  5
5903
102
{ACAD_REACTORS
330
C
102
}
330
C
100
AcDbDictionary
281
     1
1001
CONTENTTABDATA
1070
     7
1000
English Fasteners
1000
C:\Program Files\AutoCAD LT 97\Symbols\eengfast.dwg
1070
     0
1070
     0
1070
     1
1000
Metric Fasteners
1000
C:\Program Files\AutoCAD LT 97\Symbols\emetfast.dwg
1070
     0
1070
     0
1070
     1
1000
Welding
1000
C:\Program Files\AutoCAD LT 97\Symbols\ewelding.dwg
1070
     0
1070
     0
1070
     1
1000
Hyd-Pneu
1000
C:\Program Files\AutoCAD LT 97\Symbols\ehydpneu.dwg
1070
     0
1070
     0
1070
     1
1000
Pipe Fittings
1000
C:\Program Files\AutoCAD LT 97\Symbols\epipefit.dwg
1070
     0
1070
     0
1070
     1
1000
Plant Process
1000
C:\Program Files\AutoCAD LT 97\Symbols\eplntprc.dwg
1070
     0
1070
     0
1070
     1
1000
BLOCKS
1000
C:\BLOCKS
1070
     1
1070
     0
1070
     1
1001
CONTENTCURRENTTAB
1070
     7
  0
LAYOUT
  5
5DC2
102
{ACAD_REACTORS
330
5DBF
102
}
330
5DBF
100
AcDbPlotSettings
  1

  2
\\NTSRV1\PRINT10
  4

  6

 40
0.0
 41
0.0
 42
0.0
 43
0.0
 44
0.0
 45
0.0
 46
0.0
 47
0.0
 48
0.0
 49
0.0
140
0.0
141
0.0
142
1.0
143
1.0
 70
   688
 72
     0
 73
     0
 74
     5
  7
monochrome.ctb
 75
    16
147
1.0
148
0.0
149
0.0
100
AcDbLayout
  1
Layout1
 70
     0
 71
     1
 10
0.0
 20
0.0
 11
12.0
 21
9.0
 12
0.0
 22
0.0
 32
0.0
 14
1.000000000000000E+20
 24
1.000000000000000E+20
 34
1.000000000000000E+20
 15
-1.000000000000000E+20
 25
-1.000000000000000E+20
 35
-1.000000000000000E+20
146
0.0
 13
0.0
 23
0.0
 33
0.0
 16
1.0
 26
0.0
 36
0.0
 17
0.0
 27
1.0
 37
0.0
 76
     0
330
15
  0
LAYOUT
  5
5DC1
102
{ACAD_REACTORS
330
5DBF
102
}
330
5DBF
100
AcDbPlotSettings
  1

  2
Adobe PDF
  4
A4
  6

 40
3.174999952316283
 41
3.174999952316283
 42
3.175003051757812
 43
3.17498779296875
 44
209.9098358154297
 45
297.0318298339843
 46
0.0
 47
0.0
 48
0.0
 49
0.0
140
0.0
141
0.0
142
1.0
143
0.0586114317826065
 70
 11952
 72
     1
 73
     1
 74
     1
  7
monochrome.ctb
 75
     0
147
17.06151802790047
148
52.52610147919593
149
-0.4763710481972653
100
AcDbLayout
  1
Model
 70
     1
 71
     0
 10
0.0
 20
0.0
 11
12.0
 21
9.0
 12
0.0
 22
0.0
 32
0.0
 14
0.0
 24
0.0
 34
0.0
 15
0.0
 25
0.0
 35
0.0
146
0.0
 13
0.0
 23
0.0
 33
0.0
 16
1.0
 26
0.0
 36
0.0
 17
0.0
 27
1.0
 37
0.0
 76
     0
330
18
  0
MLINESTYLE
  5
1B
102
{ACAD_REACTORS
330
E
102
}
330
E
100
AcDbMlineStyle
  2
STANDARD
 70
     0
  3

 62
     0
 51
90.0
 52
90.0
 71
     2
 49
0.5
 62
   256
  6
BYLAYER
 49
-0.5
 62
   256
  6
BYLAYER
  0
ACDBPLACEHOLDER
  5
5DBE
102
{ACAD_REACTORS
330
5DBD
102
}
330
5DBD
  0
DICTIONARYVAR
  5
60EB
102
{ACAD_REACTORS
330
60EA
102
}
330
60EA
100
DictionaryVariables
280
     0
  1
96
  0
ENDSEC
  0
EOF
