ISO-10303-21;
HEADER;
FILE_DESCRIPTION (( 'STEP AP203' ),
    '1' );
FILE_NAME ('TTN051896-E0W.STEP',
    '2017-04-18T15:08:07',
    ( 'admin' ),
    ( '' ),
    'SwSTEP 2.0',
    'SolidWorks 2016',
    '' );
FILE_SCHEMA (( 'CONFIG_CONTROL_DESIGN' ));
ENDSEC;

DATA;
#1 = APPROVAL ( #279, 'UNSPECIFIED' ) ;
#2 = CYLINDRICAL_SURFACE ( 'NONE', #104, 0.4999999999999999400 ) ;
#3 = CC_DESIGN_APPROVAL ( #55, ( #91 ) ) ;
#4 = EDGE_CURVE ( 'NONE', #170, #172, #277, .T. ) ;
#5 = ORIENTED_EDGE ( 'NONE', *, *, #194, .F. ) ;
#6 = DIRECTION ( 'NONE',  ( -1.000000000000000000, 1.224646799147353200E-016, 2.249565377136128300E-032 ) ) ;
#7 = CARTESIAN_POINT ( 'NONE',  ( 0.0000000000000000000, 0.0000000000000000000, -22.01775590551181200 ) ) ;
#8 = CONICAL_SURFACE ( 'NONE', #324, 0.4921294110913652700, 0.7740659203483674100 ) ;
#9 = SPHERICAL_SURFACE ( 'NONE', #60, 22.06283464566929100 ) ;
#10 = FACE_OUTER_BOUND ( 'NONE', #134, .T. ) ;
#11 = CARTESIAN_POINT ( 'NONE',  ( 0.0000000000000000000, 0.0000000000000000000, 22.01775590551181200 ) ) ;
#12 = CC_DESIGN_SECURITY_CLASSIFICATION ( #33, ( #38 ) ) ;
#13 = CARTESIAN_POINT ( 'NONE',  ( 0.0000000000000000000, 0.0000000000000000000, 22.01775590551181200 ) ) ;
#14 = ORIENTED_EDGE ( 'NONE', *, *, #137, .T. ) ;
#15 = CIRCLE ( 'NONE', #205, 0.4921294110913622100 ) ;
#16 = CIRCLE ( 'NONE', #309, 0.4921294110913596600 ) ;
#17 = PERSON_AND_ORGANIZATION_ROLE ( 'classification_officer' ) ;
#18 = VECTOR ( 'NONE', #96, 39.37007874015748100 ) ;
#19 = DIRECTION ( 'NONE',  ( 0.0000000000000000000, 1.000000000000000000, 1.908182536255193800E-016 ) ) ;
#20 = CARTESIAN_POINT ( 'NONE',  ( 0.0000000000000000000, 0.0000000000000000000, -22.01775590551181200 ) ) ;
#21 = DIRECTION ( 'NONE',  ( -1.000000000000000000, 0.0000000000000000000, 0.0000000000000000000 ) ) ;
#22 = MANIFOLD_SOLID_BREP ( 'TTN051897-1-solid1', #158 ) ;
#23 = ORIENTED_EDGE ( 'NONE', *, *, #132, .T. ) ;
#24 = ORIENTED_EDGE ( 'NONE', *, *, #180, .T. ) ;
#25 = DIRECTION ( 'NONE',  ( 0.0000000000000000000, -1.000000000000000000, -1.878145495644181100E-016 ) ) ;
#26 = CIRCLE ( 'NONE', #193, 22.06283464566929100 ) ;
#27 = CIRCLE ( 'NONE', #195, 22.06283464566929100 ) ;
#28 = EDGE_CURVE ( 'NONE', #239, #106, #89, .T. ) ;
#29 = APPROVAL_ROLE ( '' ) ;
#30 = DATE_TIME_ROLE ( 'classification_date' ) ;
#31 = AXIS2_PLACEMENT_3D ( 'NONE', #7, #217, #272 ) ;
#32 = DATE_AND_TIME ( #227, #175 ) ;
#33 = SECURITY_CLASSIFICATION ( '', '', #135 ) ;
#34 = APPROVAL_PERSON_ORGANIZATION ( #169, #1, #224 ) ;
#35 = PERSON_AND_ORGANIZATION_ROLE ( 'design_owner' ) ;
#36 = EDGE_LOOP ( 'NONE', ( #45, #179, #281 ) ) ;
#37 = ORIENTED_EDGE ( 'NONE', *, *, #166, .T. ) ;
#38 = PRODUCT_DEFINITION_FORMATION_WITH_SPECIFIED_SOURCE ( 'ANY', '', #182, .NOT_KNOWN. ) ;
#39 = ORIENTED_EDGE ( 'NONE', *, *, #245, .F. ) ;
#40 = COORDINATED_UNIVERSAL_TIME_OFFSET ( 5, 0, .BEHIND. ) ;
#41 = ADVANCED_FACE ( 'NONE', ( #305 ), #203, .T. ) ;
#42 = SHAPE_DEFINITION_REPRESENTATION ( #71, #294 ) ;
#43 = ORIENTED_EDGE ( 'NONE', *, *, #66, .F. ) ;
#44 = DIRECTION ( 'NONE',  ( 0.0000000000000000000, 1.000000000000000000, 1.908182536255182000E-016 ) ) ;
#45 = ORIENTED_EDGE ( 'NONE', *, *, #47, .F. ) ;
#46 = DATE_AND_TIME ( #321, #301 ) ;
#47 = EDGE_CURVE ( 'NONE', #143, #204, #69, .T. ) ;
#48 = CARTESIAN_POINT ( 'NONE',  ( 6.123233995736764800E-017, 0.4999999999999999400, -0.03153836032484535300 ) ) ;
#49 = UNCERTAINTY_MEASURE_WITH_UNIT (LENGTH_MEASURE( 1.000000000000000100E-005 ), #147, 'distance_accuracy_value', 'NONE');
#50 = PERSON_AND_ORGANIZATION ( #269, #314 ) ;
#51 = CARTESIAN_POINT ( 'NONE',  ( 0.0000000000000000000, -0.4999999999999999400, -0.03153836032484554100 ) ) ;
#52 = CC_DESIGN_DATE_AND_TIME_ASSIGNMENT ( #105, #73, ( #91 ) ) ;
#53 = AXIS2_PLACEMENT_3D ( 'NONE', #262, #54, #280 ) ;
#54 = DIRECTION ( 'NONE',  ( -0.0000000000000000000, -1.836909530733283100E-016, 1.000000000000000000 ) ) ;
#55 = APPROVAL ( #184, 'UNSPECIFIED' ) ;
#56 = DIRECTION ( 'NONE',  ( -0.0000000000000000000, -1.836909530733283100E-016, 1.000000000000000000 ) ) ;
#57 = FACE_OUTER_BOUND ( 'NONE', #173, .T. ) ;
#58 = CARTESIAN_POINT ( 'NONE',  ( 0.0000000000000000000, -4.051734778598411100E-015, 0.03958938454709712300 ) ) ;
#59 = CC_DESIGN_PERSON_AND_ORGANIZATION_ASSIGNMENT ( #237, #192, ( #91 ) ) ;
#60 = AXIS2_PLACEMENT_3D ( 'NONE', #11, #126, #152 ) ;
#61 = DATE_AND_TIME ( #244, #208 ) ;
#62 =( GEOMETRIC_REPRESENTATION_CONTEXT ( 3 ) GLOBAL_UNCERTAINTY_ASSIGNED_CONTEXT ( ( #49 ) ) GLOBAL_UNIT_ASSIGNED_CONTEXT ( ( #147, #264, #266 ) ) REPRESENTATION_CONTEXT ( 'NONE', 'WORKASPACE' ) );
#63 = ADVANCED_FACE ( 'NONE', ( #10 ), #75, .T. ) ;
#64 = AXIS2_PLACEMENT_3D ( 'NONE', #20, #6, #199 ) ;
#65 = ORIENTED_EDGE ( 'NONE', *, *, #171, .F. ) ;
#66 = EDGE_CURVE ( 'NONE', #258, #106, #214, .T. ) ;
#67 = CARTESIAN_POINT ( 'NONE',  ( 6.026847080593558600E-017, 0.4921294110914047900, -0.03958938454709925300 ) ) ;
#68 = EDGE_CURVE ( 'NONE', #143, #170, #85, .T. ) ;
#69 = CIRCLE ( 'NONE', #64, 22.06283464566929100 ) ;
#70 = CARTESIAN_POINT ( 'NONE',  ( 0.0000000000000000000, 1.407386820931525600E-017, -0.03153836032484545100 ) ) ;
#71 = PRODUCT_DEFINITION_SHAPE ( 'NONE', 'NONE',  #91 ) ;
#72 = CC_DESIGN_APPROVAL ( #273, ( #33 ) ) ;
#73 = DATE_TIME_ROLE ( 'creation_date' ) ;
#74 = EDGE_LOOP ( 'NONE', ( #24, #37, #14, #139 ) ) ;
#75 = SPHERICAL_SURFACE ( 'NONE', #243, 22.06283464566929100 ) ;
#76 = DIRECTION ( 'NONE',  ( 0.0000000000000000000, 1.000000000000000000, 1.878145495644181100E-016 ) ) ;
#77 = CONICAL_SURFACE ( 'NONE', #328, 0.4999999999999999400, 0.7740659203485191800 ) ;
#78 = CARTESIAN_POINT ( 'NONE',  ( 0.0000000000000000000, 2.487245276431956000E-018, 0.03153836032484545100 ) ) ;
#79 =( LENGTH_UNIT ( ) NAMED_UNIT ( * ) SI_UNIT ( $, .METRE. ) );
#80 = ORIENTED_EDGE ( 'NONE', *, *, #66, .T. ) ;
#81 = LOCAL_TIME ( 11, 8, 7.000000000000000000, #282 ) ;
#82 = EDGE_LOOP ( 'NONE', ( #307, #130, #111, #43 ) ) ;
#83 = CIRCLE ( 'NONE', #168, 0.4999999999999999400 ) ;
#84 = ORIENTED_EDGE ( 'NONE', *, *, #47, .T. ) ;
#85 = CIRCLE ( 'NONE', #286, 0.4921294110913622100 ) ;
#86 = ORIENTED_EDGE ( 'NONE', *, *, #159, .T. ) ;
#87 = ADVANCED_FACE ( 'NONE', ( #267 ), #9, .T. ) ;
#88 = LINE ( 'NONE', #251, #284 ) ;
#89 = CIRCLE ( 'NONE', #53, 0.4999999999999999400 ) ;
#90 = DIRECTION ( 'NONE',  ( 0.0000000000000000000, 1.836909530733283100E-016, -1.000000000000000000 ) ) ;
#91 = PRODUCT_DEFINITION ( 'UNKNOWN', '', #38, #216 ) ;
#92 = FACE_OUTER_BOUND ( 'NONE', #82, .T. ) ;
#93 = DATE_AND_TIME ( #167, #178 ) ;
#94 = CARTESIAN_POINT ( 'NONE',  ( 6.123233995736764800E-017, 0.4999999999999999400, -0.03153836032484535300 ) ) ;
#95 = COORDINATED_UNIVERSAL_TIME_OFFSET ( 5, 0, .BEHIND. ) ;
#96 = DIRECTION ( 'NONE',  ( -0.0000000000000000000, -1.836909530733566100E-016, 1.000000000000000000 ) ) ;
#97 = FACE_OUTER_BOUND ( 'NONE', #255, .T. ) ;
#98 = DIRECTION ( 'NONE',  ( 0.0000000000000000000, -0.6990484440403496000, 0.7150743128408165700 ) ) ;
#99 = CC_DESIGN_DATE_AND_TIME_ASSIGNMENT ( #32, #30, ( #33 ) ) ;
#100 = ORIENTED_EDGE ( 'NONE', *, *, #166, .F. ) ;
#101 = DIRECTION ( 'NONE',  ( 0.0000000000000000000, -1.000000000000000000, -1.878145495644181100E-016 ) ) ;
#102 = APPROVAL_PERSON_ORGANIZATION ( #148, #273, #29 ) ;
#103 = MECHANICAL_CONTEXT ( 'NONE', #235, 'mechanical' ) ;
#104 = AXIS2_PLACEMENT_3D ( 'NONE', #133, #306, #312 ) ;
#105 = DATE_AND_TIME ( #302, #81 ) ;
#106 = VERTEX_POINT ( 'NONE', #261 ) ;
#107 = EDGE_LOOP ( 'NONE', ( #212, #23, #240 ) ) ;
#108 = DIRECTION ( 'NONE',  ( 0.0000000000000000000, 0.0000000000000000000, 1.000000000000000000 ) ) ;
#109 = ADVANCED_FACE ( 'NONE', ( #138 ), #2, .T. ) ;
#110 = AXIS2_PLACEMENT_3D ( 'NONE', #322, #210, #225 ) ;
#111 = ORIENTED_EDGE ( 'NONE', *, *, #180, .F. ) ;
#112 = CARTESIAN_POINT ( 'NONE',  ( 0.0000000000000000000, 0.0000000000000000000, 22.01775590551181200 ) ) ;
#113 = CC_DESIGN_PERSON_AND_ORGANIZATION_ASSIGNMENT ( #50, #117, ( #38 ) ) ;
#114 = DIRECTION ( 'NONE',  ( 0.0000000000000000000, -1.000000000000000000, -1.981140166284478300E-016 ) ) ;
#115 = DIRECTION ( 'NONE',  ( 0.0000000000000000000, -1.000000000000000000, -1.878145495644181100E-016 ) ) ;
#116 = LINE ( 'NONE', #317, #18 ) ;
#117 = PERSON_AND_ORGANIZATION_ROLE ( 'creator' ) ;
#118 = ORIENTED_EDGE ( 'NONE', *, *, #28, .F. ) ;
#119 = EDGE_LOOP ( 'NONE', ( #39, #185, #80, #118 ) ) ;
#120 = APPROVAL_PERSON_ORGANIZATION ( #259, #55, #144 ) ;
#121 = LENGTH_MEASURE_WITH_UNIT ( LENGTH_MEASURE( 0.02539999999999999900 ), #79 );
#122 = ORIENTED_EDGE ( 'NONE', *, *, #28, .T. ) ;
#123 = SPHERICAL_SURFACE ( 'NONE', #188, 22.06283464566929100 ) ;
#124 = CARTESIAN_POINT ( 'NONE',  ( 0.0000000000000000000, 0.4921294110913652700, 0.03958938454709721300 ) ) ;
#125 = AXIS2_PLACEMENT_3D ( 'NONE', #191, #153, #115 ) ;
#126 = DIRECTION ( 'NONE',  ( 1.000000000000000000, 0.0000000000000000000, 0.0000000000000000000 ) ) ;
#127 = CC_DESIGN_PERSON_AND_ORGANIZATION_ASSIGNMENT ( #254, #303, ( #38 ) ) ;
#128 = CARTESIAN_POINT ( 'NONE',  ( 0.0000000000000000000, 0.0000000000000000000, 0.04507874015748031300 ) ) ;
#129 = FACE_OUTER_BOUND ( 'NONE', #319, .T. ) ;
#130 = ORIENTED_EDGE ( 'NONE', *, *, #245, .T. ) ;
#131 = CIRCLE ( 'NONE', #110, 0.4921294110913596600 ) ;
#132 = EDGE_CURVE ( 'NONE', #141, #189, #27, .T. ) ;
#133 = CARTESIAN_POINT ( 'NONE',  ( 0.0000000000000000000, 0.0000000000000000000, 0.04507874015748031300 ) ) ;
#134 = EDGE_LOOP ( 'NONE', ( #197, #84, #65 ) ) ;
#135 = SECURITY_CLASSIFICATION_LEVEL ( 'unclassified' ) ;
#136 = ORIENTED_EDGE ( 'NONE', *, *, #271, .F. ) ;
#137 = EDGE_CURVE ( 'NONE', #172, #323, #190, .T. ) ;
#138 = FACE_OUTER_BOUND ( 'NONE', #74, .T. ) ;
#139 = ORIENTED_EDGE ( 'NONE', *, *, #329, .F. ) ;
#140 = CARTESIAN_POINT ( 'NONE',  ( 0.0000000000000000000, 0.0000000000000000000, -22.01775590551181200 ) ) ;
#141 = VERTEX_POINT ( 'NONE', #299 ) ;
#142 = DIRECTION ( 'NONE',  ( 8.560874394428187600E-017, -0.6990484440402406900, -0.7150743128409229300 ) ) ;
#143 = VERTEX_POINT ( 'NONE', #150 ) ;
#144 = APPROVAL_ROLE ( '' ) ;
#145 = CIRCLE ( 'NONE', #125, 0.4999999999999999400 ) ;
#146 = AXIS2_PLACEMENT_3D ( 'NONE', #13, #238, #196 ) ;
#147 =( CONVERSION_BASED_UNIT ( 'INCH', #121 ) LENGTH_UNIT ( ) NAMED_UNIT ( #220 ) );
#148 = PERSON_AND_ORGANIZATION ( #269, #314 ) ;
#149 = CARTESIAN_POINT ( 'NONE',  ( 6.123233995736764800E-017, 0.4999999999999999400, 0.03153836032484554100 ) ) ;
#150 = CARTESIAN_POINT ( 'NONE',  ( -6.026847080593574600E-017, -0.4921294110914061200, 0.03958938454709925300 ) ) ;
#151 = EDGE_CURVE ( 'NONE', #189, #258, #131, .T. ) ;
#152 = DIRECTION ( 'NONE',  ( 0.0000000000000000000, -1.000000000000000000, -1.981140166284478300E-016 ) ) ;
#153 = DIRECTION ( 'NONE',  ( -0.0000000000000000000, -1.836909530733283100E-016, 1.000000000000000000 ) ) ;
#154 = DIRECTION ( 'NONE',  ( 1.224646799147353200E-016, 1.000000000000000000, 0.0000000000000000000 ) ) ;
#155 = ADVANCED_FACE ( 'NONE', ( #276 ), #8, .T. ) ;
#156 = PERSON_AND_ORGANIZATION ( #269, #314 ) ;
#157 = AXIS2_PLACEMENT_3D ( 'NONE', #128, #278, #207 ) ;
#158 = CLOSED_SHELL ( 'NONE', ( #300, #327, #87, #109, #63, #270, #218, #183, #41, #155 ) ) ;
#159 = EDGE_CURVE ( 'NONE', #141, #258, #223, .T. ) ;
#160 = VECTOR ( 'NONE', #177, 39.37007874015748900 ) ;
#161 = ORIENTED_EDGE ( 'NONE', *, *, #163, .T. ) ;
#162 = ORIENTED_EDGE ( 'NONE', *, *, #211, .F. ) ;
#163 = EDGE_CURVE ( 'NONE', #258, #189, #16, .T. ) ;
#164 = ORIENTED_EDGE ( 'NONE', *, *, #4, .F. ) ;
#165 = APPROVAL_STATUS ( 'not_yet_approved' ) ;
#166 = EDGE_CURVE ( 'NONE', #239, #172, #88, .T. ) ;
#167 = CALENDAR_DATE ( 2017, 18, 4 ) ;
#168 = AXIS2_PLACEMENT_3D ( 'NONE', #78, #90, #76 ) ;
#169 = PERSON_AND_ORGANIZATION ( #269, #314 ) ;
#170 = VERTEX_POINT ( 'NONE', #228 ) ;
#171 = EDGE_CURVE ( 'NONE', #170, #204, #26, .T. ) ;
#172 = VERTEX_POINT ( 'NONE', #149 ) ;
#173 = EDGE_LOOP ( 'NONE', ( #292, #86, #161 ) ) ;
#174 = DIRECTION ( 'NONE',  ( 0.0000000000000000000, 1.000000000000000000, 1.908182536255193800E-016 ) ) ;
#175 = LOCAL_TIME ( 11, 8, 7.000000000000000000, #242 ) ;
#176 = CC_DESIGN_APPROVAL ( #1, ( #38 ) ) ;
#177 = DIRECTION ( 'NONE',  ( 0.0000000000000000000, 0.6990484440402410200, -0.7150743128409227100 ) ) ;
#178 = LOCAL_TIME ( 11, 8, 7.000000000000000000, #95 ) ;
#179 = ORIENTED_EDGE ( 'NONE', *, *, #68, .T. ) ;
#180 = EDGE_CURVE ( 'NONE', #106, #239, #145, .T. ) ;
#181 = DIRECTION ( 'NONE',  ( 0.0000000000000000000, 0.0000000000000000000, -1.000000000000000000 ) ) ;
#182 = PRODUCT ( 'TTN051896-E0W', 'TTN051896-E0W', '', ( #103 ) ) ;
#183 = ADVANCED_FACE ( 'NONE', ( #57 ), #123, .T. ) ;
#184 = APPROVAL_STATUS ( 'not_yet_approved' ) ;
#185 = ORIENTED_EDGE ( 'NONE', *, *, #163, .F. ) ;
#186 = COORDINATED_UNIVERSAL_TIME_OFFSET ( 5, 0, .BEHIND. ) ;
#187 = DIRECTION ( 'NONE',  ( 1.000000000000000000, 0.0000000000000000000, 0.0000000000000000000 ) ) ;
#188 = AXIS2_PLACEMENT_3D ( 'NONE', #260, #187, #114 ) ;
#189 = VERTEX_POINT ( 'NONE', #67 ) ;
#190 = CIRCLE ( 'NONE', #256, 0.4999999999999999400 ) ;
#191 = CARTESIAN_POINT ( 'NONE',  ( 0.0000000000000000000, 1.407386820931555200E-017, -0.03153836032484545100 ) ) ;
#192 = PERSON_AND_ORGANIZATION_ROLE ( 'creator' ) ;
#193 = AXIS2_PLACEMENT_3D ( 'NONE', #233, #230, #181 ) ;
#194 = EDGE_CURVE ( 'NONE', #170, #143, #15, .T. ) ;
#195 = AXIS2_PLACEMENT_3D ( 'NONE', #112, #289, #154 ) ;
#196 = DIRECTION ( 'NONE',  ( 0.0000000000000000000, 0.0000000000000000000, 1.000000000000000000 ) ) ;
#197 = ORIENTED_EDGE ( 'NONE', *, *, #194, .T. ) ;
#198 = APPLICATION_PROTOCOL_DEFINITION ( 'international standard', 'config_control_design', 1994, #315 ) ;
#199 = DIRECTION ( 'NONE',  ( -1.224646799147353200E-016, -1.000000000000000000, 0.0000000000000000000 ) ) ;
#200 = AXIS2_PLACEMENT_3D ( 'NONE', #70, #253, #25 ) ;
#201 = LINE ( 'NONE', #48, #274 ) ;
#202 = DIRECTION ( 'NONE',  ( -0.0000000000000000000, -1.836909530733283100E-016, 1.000000000000000000 ) ) ;
#203 = CONICAL_SURFACE ( 'NONE', #200, 0.4999999999999999400, 0.7740659203485191800 ) ;
#204 = VERTEX_POINT ( 'NONE', #316 ) ;
#205 = AXIS2_PLACEMENT_3D ( 'NONE', #58, #56, #174 ) ;
#206 = ORIENTED_EDGE ( 'NONE', *, *, #68, .F. ) ;
#207 = DIRECTION ( 'NONE',  ( 0.0000000000000000000, -1.000000000000000000, -1.878145495644181100E-016 ) ) ;
#208 = LOCAL_TIME ( 11, 8, 7.000000000000000000, #186 ) ;
#209 = CARTESIAN_POINT ( 'NONE',  ( 0.0000000000000000000, 0.0000000000000000000, 0.0000000000000000000 ) ) ;
#210 = DIRECTION ( 'NONE',  ( 0.0000000000000000000, 1.836909530733283100E-016, -1.000000000000000000 ) ) ;
#211 = EDGE_CURVE ( 'NONE', #323, #172, #83, .T. ) ;
#212 = ORIENTED_EDGE ( 'NONE', *, *, #159, .F. ) ;
#213 = SPHERICAL_SURFACE ( 'NONE', #31, 22.06283464566929100 ) ;
#214 = LINE ( 'NONE', #51, #296 ) ;
#215 = AXIS2_PLACEMENT_3D ( 'NONE', #209, #108, #310 ) ;
#216 = DESIGN_CONTEXT ( 'detailed design', #315, 'design' ) ;
#217 = DIRECTION ( 'NONE',  ( -1.000000000000000000, 0.0000000000000000000, 0.0000000000000000000 ) ) ;
#218 = ADVANCED_FACE ( 'NONE', ( #129 ), #222, .T. ) ;
#219 = CARTESIAN_POINT ( 'NONE',  ( 0.0000000000000000000, -0.4999999999999999400, 0.03153836032484535300 ) ) ;
#220 = DIMENSIONAL_EXPONENTS ( 1.000000000000000000, 0.0000000000000000000, 0.0000000000000000000, 0.0000000000000000000, 0.0000000000000000000, 0.0000000000000000000, 0.0000000000000000000 ) ;
#221 = ORIENTED_EDGE ( 'NONE', *, *, #329, .T. ) ;
#222 = CYLINDRICAL_SURFACE ( 'NONE', #157, 0.4999999999999999400 ) ;
#223 = CIRCLE ( 'NONE', #146, 22.06283464566929100 ) ;
#224 = APPROVAL_ROLE ( '' ) ;
#225 = DIRECTION ( 'NONE',  ( 0.0000000000000000000, -1.000000000000000000, -1.908182536255203700E-016 ) ) ;
#226 = DIRECTION ( 'NONE',  ( -0.0000000000000000000, -1.836909530733283100E-016, 1.000000000000000000 ) ) ;
#227 = CALENDAR_DATE ( 2017, 18, 4 ) ;
#228 = CARTESIAN_POINT ( 'NONE',  ( 0.0000000000000000000, 0.4921294110913980200, 0.03958938454709935700 ) ) ;
#229 = PERSON_AND_ORGANIZATION ( #269, #314 ) ;
#230 = DIRECTION ( 'NONE',  ( 1.000000000000000000, -0.0000000000000000000, 0.0000000000000000000 ) ) ;
#231 = CARTESIAN_POINT ( 'NONE',  ( 6.026847080593124700E-017, -0.4921294110913652700, 0.03958938454709702600 ) ) ;
#232 = CARTESIAN_POINT ( 'NONE',  ( 0.0000000000000000000, 2.487245276431956000E-018, 0.03153836032484545100 ) ) ;
#233 = CARTESIAN_POINT ( 'NONE',  ( 0.0000000000000000000, 0.0000000000000000000, -22.01775590551181200 ) ) ;
#234 = CARTESIAN_POINT ( 'NONE',  ( 0.0000000000000000000, 1.407386820931525600E-017, -0.03153836032484545100 ) ) ;
#235 = APPLICATION_CONTEXT ( 'configuration controlled 3d designs of mechanical parts and assemblies' ) ;
#236 = DIRECTION ( 'NONE',  ( 0.0000000000000000000, 1.000000000000000000, 1.981140166284478300E-016 ) ) ;
#237 = PERSON_AND_ORGANIZATION ( #269, #314 ) ;
#238 = DIRECTION ( 'NONE',  ( -1.000000000000000000, 0.0000000000000000000, -0.0000000000000000000 ) ) ;
#239 = VERTEX_POINT ( 'NONE', #94 ) ;
#240 = ORIENTED_EDGE ( 'NONE', *, *, #151, .T. ) ;
#241 = DIRECTION ( 'NONE',  ( 0.0000000000000000000, -1.000000000000000000, -1.908182536255203700E-016 ) ) ;
#242 = COORDINATED_UNIVERSAL_TIME_OFFSET ( 5, 0, .BEHIND. ) ;
#243 = AXIS2_PLACEMENT_3D ( 'NONE', #140, #21, #236 ) ;
#244 = CALENDAR_DATE ( 2017, 18, 4 ) ;
#245 = EDGE_CURVE ( 'NONE', #189, #239, #201, .T. ) ;
#246 = DIRECTION ( 'NONE',  ( 0.0000000000000000000, 1.836909530733283100E-016, -1.000000000000000000 ) ) ;
#247 = AXIS2_PLACEMENT_3D ( 'NONE', #249, #288, #275 ) ;
#248 = CARTESIAN_POINT ( 'NONE',  ( 0.0000000000000000000, 4.051734778598411100E-015, -0.03958938454709712300 ) ) ;
#249 = CARTESIAN_POINT ( 'NONE',  ( 0.0000000000000000000, 1.008344963829502300E-018, 0.03958938454709712300 ) ) ;
#250 = CC_DESIGN_PERSON_AND_ORGANIZATION_ASSIGNMENT ( #156, #17, ( #33 ) ) ;
#251 = CARTESIAN_POINT ( 'NONE',  ( 6.123233995736764800E-017, 0.4999999999999999400, 0.04507874015748041000 ) ) ;
#252 = CARTESIAN_POINT ( 'NONE',  ( 0.0000000000000000000, -0.4921294110913967400, -0.03958938454709935700 ) ) ;
#253 = DIRECTION ( 'NONE',  ( -0.0000000000000000000, -1.836909530733283100E-016, 1.000000000000000000 ) ) ;
#254 = PERSON_AND_ORGANIZATION ( #269, #314 ) ;
#255 = EDGE_LOOP ( 'NONE', ( #206, #330, #308, #164 ) ) ;
#256 = AXIS2_PLACEMENT_3D ( 'NONE', #232, #297, #285 ) ;
#257 = APPLICATION_PROTOCOL_DEFINITION ( 'international standard', 'config_control_design', 1994, #235 ) ;
#258 = VERTEX_POINT ( 'NONE', #252 ) ;
#259 = PERSON_AND_ORGANIZATION ( #269, #314 ) ;
#260 = CARTESIAN_POINT ( 'NONE',  ( 0.0000000000000000000, 0.0000000000000000000, 22.01775590551181200 ) ) ;
#261 = CARTESIAN_POINT ( 'NONE',  ( 0.0000000000000000000, -0.4999999999999999400, -0.03153836032484554100 ) ) ;
#262 = CARTESIAN_POINT ( 'NONE',  ( 0.0000000000000000000, 1.407386820931555200E-017, -0.03153836032484545100 ) ) ;
#263 = CONICAL_SURFACE ( 'NONE', #247, 0.4921294110913652700, 0.7740659203483674100 ) ;
#264 =( NAMED_UNIT ( * ) PLANE_ANGLE_UNIT ( ) SI_UNIT ( $, .RADIAN. ) );
#265 = APPROVAL_DATE_TIME ( #61, #55 ) ;
#266 =( NAMED_UNIT ( * ) SI_UNIT ( $, .STERADIAN. ) SOLID_ANGLE_UNIT ( ) );
#267 = FACE_OUTER_BOUND ( 'NONE', #107, .T. ) ;
#268 = ORIENTED_EDGE ( 'NONE', *, *, #211, .T. ) ;
#269 = PERSON ( 'UNSPECIFIED', 'UNSPECIFIED', 'UNSPECIFIED', ('UNSPECIFIED'), ('UNSPECIFIED'), ('UNSPECIFIED') ) ;
#270 = ADVANCED_FACE ( 'NONE', ( #283 ), #213, .T. ) ;
#271 = EDGE_CURVE ( 'NONE', #143, #323, #293, .T. ) ;
#272 = DIRECTION ( 'NONE',  ( 0.0000000000000000000, 1.000000000000000000, 1.981140166284478300E-016 ) ) ;
#273 = APPROVAL ( #165, 'UNSPECIFIED' ) ;
#274 = VECTOR ( 'NONE', #326, 39.37007874015748900 ) ;
#275 = DIRECTION ( 'NONE',  ( 0.0000000000000000000, 1.000000000000000000, 1.908182536255182000E-016 ) ) ;
#276 = FACE_OUTER_BOUND ( 'NONE', #298, .T. ) ;
#277 = LINE ( 'NONE', #124, #160 ) ;
#278 = DIRECTION ( 'NONE',  ( -0.0000000000000000000, -1.836909530733566100E-016, 1.000000000000000000 ) ) ;
#279 = APPROVAL_STATUS ( 'not_yet_approved' ) ;
#280 = DIRECTION ( 'NONE',  ( 0.0000000000000000000, -1.000000000000000000, -1.878145495644181100E-016 ) ) ;
#281 = ORIENTED_EDGE ( 'NONE', *, *, #171, .T. ) ;
#282 = COORDINATED_UNIVERSAL_TIME_OFFSET ( 5, 0, .BEHIND. ) ;
#283 = FACE_OUTER_BOUND ( 'NONE', #36, .T. ) ;
#284 = VECTOR ( 'NONE', #295, 39.37007874015748100 ) ;
#285 = DIRECTION ( 'NONE',  ( 0.0000000000000000000, 1.000000000000000000, 1.878145495644181100E-016 ) ) ;
#286 = AXIS2_PLACEMENT_3D ( 'NONE', #311, #226, #19 ) ;
#287 = CARTESIAN_POINT ( 'NONE',  ( 0.0000000000000000000, 1.008344963829502300E-018, 0.03958938454709712300 ) ) ;
#288 = DIRECTION ( 'NONE',  ( 0.0000000000000000000, 1.836909530733283100E-016, -1.000000000000000000 ) ) ;
#289 = DIRECTION ( 'NONE',  ( 1.000000000000000000, -1.224646799147353200E-016, -2.249565377136128300E-032 ) ) ;
#290 = DIRECTION ( 'NONE',  ( 0.0000000000000000000, 1.836909530733283100E-016, -1.000000000000000000 ) ) ;
#291 = PRODUCT_RELATED_PRODUCT_CATEGORY ( 'detail', '', ( #182 ) ) ;
#292 = ORIENTED_EDGE ( 'NONE', *, *, #132, .F. ) ;
#293 = LINE ( 'NONE', #231, #325 ) ;
#294 = ADVANCED_BREP_SHAPE_REPRESENTATION ( 'TTN051896-E0W', ( #22, #215 ), #62 ) ;
#295 = DIRECTION ( 'NONE',  ( -0.0000000000000000000, -1.836909530733566100E-016, 1.000000000000000000 ) ) ;
#296 = VECTOR ( 'NONE', #98, 39.37007874015748900 ) ;
#297 = DIRECTION ( 'NONE',  ( 0.0000000000000000000, 1.836909530733283100E-016, -1.000000000000000000 ) ) ;
#298 = EDGE_LOOP ( 'NONE', ( #136, #5, #318, #162 ) ) ;
#299 = CARTESIAN_POINT ( 'NONE',  ( 0.0000000000000000000, 2.701784132116053400E-015, -0.04507874015747841100 ) ) ;
#300 = ADVANCED_FACE ( 'NONE', ( #97 ), #263, .T. ) ;
#301 = LOCAL_TIME ( 11, 8, 7.000000000000000000, #40 ) ;
#302 = CALENDAR_DATE ( 2017, 18, 4 ) ;
#303 = PERSON_AND_ORGANIZATION_ROLE ( 'design_supplier' ) ;
#304 = CC_DESIGN_PERSON_AND_ORGANIZATION_ASSIGNMENT ( #229, #35, ( #182 ) ) ;
#305 = FACE_OUTER_BOUND ( 'NONE', #119, .T. ) ;
#306 = DIRECTION ( 'NONE',  ( -0.0000000000000000000, -1.836909530733566100E-016, 1.000000000000000000 ) ) ;
#307 = ORIENTED_EDGE ( 'NONE', *, *, #151, .F. ) ;
#308 = ORIENTED_EDGE ( 'NONE', *, *, #137, .F. ) ;
#309 = AXIS2_PLACEMENT_3D ( 'NONE', #248, #246, #241 ) ;
#310 = DIRECTION ( 'NONE',  ( 1.000000000000000000, 0.0000000000000000000, 0.0000000000000000000 ) ) ;
#311 = CARTESIAN_POINT ( 'NONE',  ( 0.0000000000000000000, -4.051734778598411100E-015, 0.03958938454709712300 ) ) ;
#312 = DIRECTION ( 'NONE',  ( 0.0000000000000000000, -1.000000000000000000, -1.878145495644181100E-016 ) ) ;
#313 = APPROVAL_DATE_TIME ( #93, #1 ) ;
#314 = ORGANIZATION ( 'UNSPECIFIED', 'UNSPECIFIED', '' ) ;
#315 = APPLICATION_CONTEXT ( 'configuration controlled 3d designs of mechanical parts and assemblies' ) ;
#316 = CARTESIAN_POINT ( 'NONE',  ( 0.0000000000000000000, -2.701784132116053400E-015, 0.04507874015747841100 ) ) ;
#317 = CARTESIAN_POINT ( 'NONE',  ( 0.0000000000000000000, -0.4999999999999999400, 0.04507874015748022200 ) ) ;
#318 = ORIENTED_EDGE ( 'NONE', *, *, #4, .T. ) ;
#319 = EDGE_LOOP ( 'NONE', ( #100, #122, #221, #268 ) ) ;
#320 = APPROVAL_DATE_TIME ( #46, #273 ) ;
#321 = CALENDAR_DATE ( 2017, 18, 4 ) ;
#322 = CARTESIAN_POINT ( 'NONE',  ( 0.0000000000000000000, 4.051734778598411100E-015, -0.03958938454709712300 ) ) ;
#323 = VERTEX_POINT ( 'NONE', #219 ) ;
#324 = AXIS2_PLACEMENT_3D ( 'NONE', #287, #290, #44 ) ;
#325 = VECTOR ( 'NONE', #142, 39.37007874015748900 ) ;
#326 = DIRECTION ( 'NONE',  ( 8.560874394429515100E-017, 0.6990484440403493800, 0.7150743128408167900 ) ) ;
#327 = ADVANCED_FACE ( 'NONE', ( #92 ), #77, .T. ) ;
#328 = AXIS2_PLACEMENT_3D ( 'NONE', #234, #202, #101 ) ;
#329 = EDGE_CURVE ( 'NONE', #106, #323, #116, .T. ) ;
#330 = ORIENTED_EDGE ( 'NONE', *, *, #271, .T. ) ;
ENDSEC;
END-ISO-10303-21;
