ISO-10303-21;
HEADER;
FILE_DESCRIPTION (( 'STEP AP214' ),
    '1' );
FILE_NAME ('19072-E0W.STEP',
    '2009-12-21T17:04:37',
    ( ' ' ),
    ( ' ' ),
    'SwSTEP 2.0',
    'SolidWorks 2009',
    '' );
FILE_SCHEMA (( 'AUTOMOTIVE_DESIGN' ));
ENDSEC;

DATA;
#1 = DIRECTION ( 'NONE',  ( 1.000000000000000000, 0.0000000000000000000, 0.0000000000000000000 ) ) ;
#2 = SURFACE_STYLE_USAGE ( .BOTH. , #77 ) ;
#3 = STYLED_ITEM ( 'NONE', ( #4 ), #31 ) ;
#4 = PRESENTATION_STYLE_ASSIGNMENT (( #2 ) ) ;
#5 = PRESENTATION_LAYER_ASSIGNMENT (  '', '', ( #3 ) ) ;
#6 =( LENGTH_UNIT ( ) NAMED_UNIT ( * ) SI_UNIT ( .MILLI., .METRE. ) );
#7 = MECHANICAL_DESIGN_GEOMETRIC_PRESENTATION_REPRESENTATION (  '', ( #3 ), #99 ) ;
#8 =( NAMED_UNIT ( * ) PLANE_ANGLE_UNIT ( ) SI_UNIT ( $, .RADIAN. ) );
#9 = EDGE_LOOP ( 'NONE', ( #53, #18, #38, #58, #21 ) ) ;
#10 = EDGE_CURVE ( 'NONE', #11, #29, #42, .T. ) ;
#11 = VERTEX_POINT ( 'NONE', #80 ) ;
#12 = EDGE_LOOP ( 'NONE', ( #13, #25, #30, #48, #51 ) ) ;
#13 = ORIENTED_EDGE ( 'NONE', *, *, #14, .T. ) ;
#14 = EDGE_CURVE ( 'NONE', #23, #24, #82, .T. ) ;
#15 = ORIENTED_EDGE ( 'NONE', *, *, #49, .T. ) ;
#16 = ORIENTED_EDGE ( 'NONE', *, *, #27, .F. ) ;
#17 = CLOSED_SHELL ( 'NONE', ( #68, #32, #31, #59, #47 ) ) ;
#18 = ORIENTED_EDGE ( 'NONE', *, *, #27, .T. ) ;
#19 = ORIENTED_EDGE ( 'NONE', *, *, #20, .T. ) ;
#20 = EDGE_CURVE ( 'NONE', #37, #50, #88, .T. ) ;
#21 = ORIENTED_EDGE ( 'NONE', *, *, #66, .F. ) ;
#22 = ORIENTED_EDGE ( 'NONE', *, *, #14, .F. ) ;
#23 = VERTEX_POINT ( 'NONE', #86 ) ;
#24 = VERTEX_POINT ( 'NONE', #92 ) ;
#25 = ORIENTED_EDGE ( 'NONE', *, *, #28, .T. ) ;
#26 = ORIENTED_EDGE ( 'NONE', *, *, #64, .T. ) ;
#27 = EDGE_CURVE ( 'NONE', #24, #23, #95, .T. ) ;
#28 = EDGE_CURVE ( 'NONE', #24, #29, #97, .T. ) ;
#29 = VERTEX_POINT ( 'NONE', #83 ) ;
#30 = ORIENTED_EDGE ( 'NONE', *, *, #10, .F. ) ;
#31 = ADVANCED_FACE ( 'NONE', ( #73 ), #127, .F. ) ;
#32 = ADVANCED_FACE ( 'NONE', ( #132 ), #136, .F. ) ;
#33 = EDGE_LOOP ( 'NONE', ( #63, #35, #19, #15 ) ) ;
#34 = EDGE_LOOP ( 'NONE', ( #22, #16 ) ) ;
#35 = ORIENTED_EDGE ( 'NONE', *, *, #36, .T. ) ;
#36 = EDGE_CURVE ( 'NONE', #65, #37, #111, .T. ) ;
#37 = VERTEX_POINT ( 'NONE', #141 ) ;
#38 = ORIENTED_EDGE ( 'NONE', *, *, #52, .T. ) ;
#39 = DIRECTION ( 'NONE',  ( -0.0000000000000000000, -0.0000000000000000000, 1.000000000000000000 ) ) ;
#40 = CARTESIAN_POINT ( 'NONE',  ( 0.0000000000000000000, 0.0000000000000000000, 2.790002738225834600 ) ) ;
#41 = AXIS2_PLACEMENT_3D ( 'NONE', #40, #39, #1 ) ;
#42 = CIRCLE ( 'NONE', #41, 12.50000000000000000 ) ;
#43 = PRESENTATION_STYLE_ASSIGNMENT (( #44 ) ) ;
#44 = SURFACE_STYLE_USAGE ( .BOTH. , #45 ) ;
#45 = SURFACE_SIDE_STYLE ('',( #46 ) ) ;
#46 = SURFACE_STYLE_FILL_AREA ( #60 ) ;
#47 = ADVANCED_FACE ( 'NONE', ( #140 ), #189, .T. ) ;
#48 = ORIENTED_EDGE ( 'NONE', *, *, #49, .F. ) ;
#49 = EDGE_CURVE ( 'NONE', #50, #11, #147, .T. ) ;
#50 = VERTEX_POINT ( 'NONE', #191 ) ;
#51 = ORIENTED_EDGE ( 'NONE', *, *, #52, .F. ) ;
#52 = EDGE_CURVE ( 'NONE', #23, #50, #188, .T. ) ;
#53 = ORIENTED_EDGE ( 'NONE', *, *, #28, .F. ) ;
#54 = ORIENTED_EDGE ( 'NONE', *, *, #10, .T. ) ;
#55 = ORIENTED_EDGE ( 'NONE', *, *, #66, .T. ) ;
#56 = EDGE_LOOP ( 'NONE', ( #57, #26, #54, #55 ) ) ;
#57 = ORIENTED_EDGE ( 'NONE', *, *, #36, .F. ) ;
#58 = ORIENTED_EDGE ( 'NONE', *, *, #20, .F. ) ;
#59 = ADVANCED_FACE ( 'NONE', ( #194 ), #177, .F. ) ;
#60 = FILL_AREA_STYLE ('',( #61 ) ) ;
#61 = FILL_AREA_STYLE_COLOUR ( '', #62 ) ;
#62 = COLOUR_RGB ( '',0.7960784313725489700, 0.8235294117647058400, 0.9372549019607843100 ) ;
#63 = ORIENTED_EDGE ( 'NONE', *, *, #64, .F. ) ;
#64 = EDGE_CURVE ( 'NONE', #65, #11, #162, .T. ) ;
#65 = VERTEX_POINT ( 'NONE', #163 ) ;
#66 = EDGE_CURVE ( 'NONE', #29, #37, #198, .T. ) ;
#67 = MANIFOLD_SOLID_BREP ( 'NONE', #17 ) ;
#68 = ADVANCED_FACE ( 'NONE', ( #213 ), #229, .T. ) ;
#69 = DIRECTION ( 'NONE',  ( -0.0000000000000000000, -0.0000000000000000000, 1.000000000000000000 ) ) ;
#70 = DIRECTION ( 'NONE',  ( 1.000000000000000000, 0.0000000000000000000, 0.0000000000000000000 ) ) ;
#71 = DIRECTION ( 'NONE',  ( -0.0000000000000000000, -0.0000000000000000000, 1.000000000000000000 ) ) ;
#72 = COLOUR_RGB ( '',0.9568627450980391500, 0.9490196078431372100, 0.9607843137254902200 ) ;
#73 = FACE_OUTER_BOUND ( 'NONE', #56, .T. ) ;
#74 = DIRECTION ( 'NONE',  ( -0.0000000000000000000, -0.0000000000000000000, 1.000000000000000000 ) ) ;
#75 = DIRECTION ( 'NONE',  ( 1.000000000000000000, 0.0000000000000000000, 0.0000000000000000000 ) ) ;
#76 = CARTESIAN_POINT ( 'NONE',  ( 0.0000000000000000000, 0.0000000000000000000, -2.790002738225834600 ) ) ;
#77 = SURFACE_SIDE_STYLE ('',( #78 ) ) ;
#78 = SURFACE_STYLE_FILL_AREA ( #85 ) ;
#79 = FILL_AREA_STYLE_COLOUR ( '', #72 ) ;
#80 = CARTESIAN_POINT ( 'NONE',  ( 0.0000000000000000000, 12.50000000000000400, 2.790002738225837700 ) ) ;
#81 = AXIS2_PLACEMENT_3D ( 'NONE', #76, #90, #93 ) ;
#82 = CIRCLE ( 'NONE', #81, 12.50000000000000000 ) ;
#83 = CARTESIAN_POINT ( 'NONE',  ( -12.50000000000000000, 1.530757942277971600E-015, 2.790002738225834600 ) ) ;
#84 = VECTOR ( 'NONE', #74, 1000.000000000000000 ) ;
#85 = FILL_AREA_STYLE ('',( #79 ) ) ;
#86 = CARTESIAN_POINT ( 'NONE',  ( 12.50000000000000000, 0.0000000000000000000, -2.790002738225834600 ) ) ;
#87 = AXIS2_PLACEMENT_3D ( 'NONE', #96, #71, #75 ) ;
#88 = CIRCLE ( 'NONE', #87, 12.50000000000000000 ) ;
#89 = CARTESIAN_POINT ( 'NONE',  ( 0.0000000000000000000, 0.0000000000000000000, -2.790002738225834600 ) ) ;
#90 = DIRECTION ( 'NONE',  ( -0.0000000000000000000, -0.0000000000000000000, 1.000000000000000000 ) ) ;
#91 = CARTESIAN_POINT ( 'NONE',  ( -12.50000000000000000, 1.530757942277971600E-015, 7.977150532203490100 ) ) ;
#92 = CARTESIAN_POINT ( 'NONE',  ( -12.50000000000000000, 1.530757942277971600E-015, -2.790002738225834600 ) ) ;
#93 = DIRECTION ( 'NONE',  ( 1.000000000000000000, 0.0000000000000000000, 0.0000000000000000000 ) ) ;
#94 = AXIS2_PLACEMENT_3D ( 'NONE', #89, #69, #70 ) ;
#95 = CIRCLE ( 'NONE', #94, 12.50000000000000000 ) ;
#96 = CARTESIAN_POINT ( 'NONE',  ( 0.0000000000000000000, 0.0000000000000000000, 2.790002738225834600 ) ) ;
#97 = LINE ( 'NONE', #91, #84 ) ;
#98 =( LENGTH_UNIT ( ) NAMED_UNIT ( * ) SI_UNIT ( .MILLI., .METRE. ) );
#99 =( GEOMETRIC_REPRESENTATION_CONTEXT ( 3 ) GLOBAL_UNCERTAINTY_ASSIGNED_CONTEXT ( ( #137 ) ) GLOBAL_UNIT_ASSIGNED_CONTEXT ( ( #6, #8, #133 ) ) REPRESENTATION_CONTEXT ( 'NONE', 'WORKASPACE' ) );
#100 = SURFACE_STYLE_FILL_AREA ( #101 ) ;
#101 = FILL_AREA_STYLE ('',( #138 ) ) ;
#102 = MECHANICAL_DESIGN_GEOMETRIC_PRESENTATION_REPRESENTATION (  '', ( #104 ), #149 ) ;
#103 = PRESENTATION_LAYER_ASSIGNMENT (  '', '', ( #104 ) ) ;
#104 = STYLED_ITEM ( 'NONE', ( #114 ), #47 ) ;
#105 = AXIS2_PLACEMENT_3D ( 'NONE', #126, #125, #144 ) ;
#106 =( LENGTH_UNIT ( ) NAMED_UNIT ( * ) SI_UNIT ( .MILLI., .METRE. ) );
#107 =( NAMED_UNIT ( * ) SI_UNIT ( $, .STERADIAN. ) SOLID_ANGLE_UNIT ( ) );
#108 = DIRECTION ( 'NONE',  ( -1.000000000000000000, 1.224606353822377300E-016, 0.0000000000000000000 ) ) ;
#109 = CARTESIAN_POINT ( 'NONE',  ( 0.0000000000000000000, 0.0000000000000000000, 39.30999726177417100 ) ) ;
#110 = AXIS2_PLACEMENT_3D ( 'NONE', #109, #108, #142 ) ;
#111 = CIRCLE ( 'NONE', #110, 38.60000000000000900 ) ;
#112 = DIRECTION ( 'NONE',  ( 0.0000000000000000000, 1.000000000000000000, 0.0000000000000000000 ) ) ;
#113 = DIRECTION ( 'NONE',  ( -1.000000000000000000, 0.0000000000000000000, 0.0000000000000000000 ) ) ;
#114 = PRESENTATION_STYLE_ASSIGNMENT (( #115 ) ) ;
#115 = SURFACE_STYLE_USAGE ( .BOTH. , #116 ) ;
#116 = SURFACE_SIDE_STYLE ('',( #117 ) ) ;
#117 = SURFACE_STYLE_FILL_AREA ( #118 ) ;
#118 = FILL_AREA_STYLE ('',( #119 ) ) ;
#119 = FILL_AREA_STYLE_COLOUR ( '', #139 ) ;
#120 = SURFACE_STYLE_USAGE ( .BOTH. , #121 ) ;
#121 = SURFACE_SIDE_STYLE ('',( #100 ) ) ;
#122 = STYLED_ITEM ( 'NONE', ( #123 ), #32 ) ;
#123 = PRESENTATION_STYLE_ASSIGNMENT (( #120 ) ) ;
#124 = UNCERTAINTY_MEASURE_WITH_UNIT (LENGTH_MEASURE( 1.000000000000000100E-005 ), #106, 'distance_accuracy_value', 'NONE');
#125 = DIRECTION ( 'NONE',  ( -1.000000000000000000, 0.0000000000000000000, 0.0000000000000000000 ) ) ;
#126 = CARTESIAN_POINT ( 'NONE',  ( 0.0000000000000000000, 0.0000000000000000000, 39.30999726177417100 ) ) ;
#127 = SPHERICAL_SURFACE ( 'NONE', #105, 38.60000000000000900 ) ;
#128 = MECHANICAL_DESIGN_GEOMETRIC_PRESENTATION_REPRESENTATION (  '', ( #122 ), #130 ) ;
#129 = PRESENTATION_LAYER_ASSIGNMENT (  '', '', ( #122 ) ) ;
#130 =( GEOMETRIC_REPRESENTATION_CONTEXT ( 3 ) GLOBAL_UNCERTAINTY_ASSIGNED_CONTEXT ( ( #124 ) ) GLOBAL_UNIT_ASSIGNED_CONTEXT ( ( #106, #143, #107 ) ) REPRESENTATION_CONTEXT ( 'NONE', 'WORKASPACE' ) );
#131 = COLOUR_RGB ( '',0.9568627450980391500, 0.9490196078431372100, 0.9607843137254902200 ) ;
#132 = FACE_OUTER_BOUND ( 'NONE', #33, .T. ) ;
#133 =( NAMED_UNIT ( * ) SI_UNIT ( $, .STERADIAN. ) SOLID_ANGLE_UNIT ( ) );
#134 = CARTESIAN_POINT ( 'NONE',  ( 0.0000000000000000000, 0.0000000000000000000, 39.30999726177417100 ) ) ;
#135 = AXIS2_PLACEMENT_3D ( 'NONE', #134, #113, #112 ) ;
#136 = SPHERICAL_SURFACE ( 'NONE', #135, 38.60000000000000900 ) ;
#137 = UNCERTAINTY_MEASURE_WITH_UNIT (LENGTH_MEASURE( 1.000000000000000100E-005 ), #6, 'distance_accuracy_value', 'NONE');
#138 = FILL_AREA_STYLE_COLOUR ( '', #131 ) ;
#139 = COLOUR_RGB ( '',0.9568627450980391500, 0.9490196078431372100, 0.9607843137254902200 ) ;
#140 = FACE_OUTER_BOUND ( 'NONE', #9, .T. ) ;
#141 = CARTESIAN_POINT ( 'NONE',  ( -1.530757942277972000E-015, -12.50000000000000400, 2.790002738225837700 ) ) ;
#142 = DIRECTION ( 'NONE',  ( -1.224606353822377300E-016, -1.000000000000000000, 0.0000000000000000000 ) ) ;
#143 =( NAMED_UNIT ( * ) PLANE_ANGLE_UNIT ( ) SI_UNIT ( $, .RADIAN. ) );
#144 = DIRECTION ( 'NONE',  ( 0.0000000000000000000, 1.000000000000000000, 0.0000000000000000000 ) ) ;
#145 = DIRECTION ( 'NONE',  ( 0.0000000000000000000, 0.0000000000000000000, -1.000000000000000000 ) ) ;
#146 = DIRECTION ( 'NONE',  ( 1.000000000000000000, 0.0000000000000000000, 0.0000000000000000000 ) ) ;
#147 = CIRCLE ( 'NONE', #193, 12.50000000000000000 ) ;
#148 =( NAMED_UNIT ( * ) SI_UNIT ( $, .STERADIAN. ) SOLID_ANGLE_UNIT ( ) );
#149 =( GEOMETRIC_REPRESENTATION_CONTEXT ( 3 ) GLOBAL_UNCERTAINTY_ASSIGNED_CONTEXT ( ( #153 ) ) GLOBAL_UNIT_ASSIGNED_CONTEXT ( ( #98, #184, #155 ) ) REPRESENTATION_CONTEXT ( 'NONE', 'WORKASPACE' ) );
#150 = COLOUR_RGB ( '',0.9568627450980391500, 0.9490196078431372100, 0.9607843137254902200 ) ;
#151 = VECTOR ( 'NONE', #186, 1000.000000000000000 ) ;
#152 = DIRECTION ( 'NONE',  ( -0.0000000000000000000, -0.0000000000000000000, 1.000000000000000000 ) ) ;
#153 = UNCERTAINTY_MEASURE_WITH_UNIT (LENGTH_MEASURE( 1.000000000000000100E-005 ), #98, 'distance_accuracy_value', 'NONE');
#154 =( LENGTH_UNIT ( ) NAMED_UNIT ( * ) SI_UNIT ( .MILLI., .METRE. ) );
#155 =( NAMED_UNIT ( * ) SI_UNIT ( $, .STERADIAN. ) SOLID_ANGLE_UNIT ( ) );
#156 = SURFACE_STYLE_FILL_AREA ( #157 ) ;
#157 = FILL_AREA_STYLE ('',( #158 ) ) ;
#158 = FILL_AREA_STYLE_COLOUR ( '', #150 ) ;
#159 = CARTESIAN_POINT ( 'NONE',  ( 0.0000000000000000000, 0.0000000000000000000, 7.977150532203490100 ) ) ;
#160 = AXIS2_PLACEMENT_3D ( 'NONE', #159, #152, #176 ) ;
#161 = AXIS2_PLACEMENT_3D ( 'NONE', #183, #146, #145 ) ;
#162 = CIRCLE ( 'NONE', #161, 38.60000000000000900 ) ;
#163 = CARTESIAN_POINT ( 'NONE',  ( 0.0000000000000000000, 2.363490262877188700E-015, 0.7099972617741617800 ) ) ;
#164 = PRESENTATION_LAYER_ASSIGNMENT (  '', '', ( #165 ) ) ;
#165 = STYLED_ITEM ( 'NONE', ( #204 ), #59 ) ;
#166 = DIRECTION ( 'NONE',  ( 1.000000000000000000, 0.0000000000000000000, 0.0000000000000000000 ) ) ;
#167 = DIRECTION ( 'NONE',  ( 0.0000000000000000000, -0.0000000000000000000, 1.000000000000000000 ) ) ;
#168 = CARTESIAN_POINT ( 'NONE',  ( 0.0000000000000000000, 6.429395695523603200E-016, -2.790002738225834600 ) ) ;
#169 = AXIS2_PLACEMENT_3D ( 'NONE', #168, #167, #166 ) ;
#170 = PRESENTATION_STYLE_ASSIGNMENT (( #171 ) ) ;
#171 = SURFACE_STYLE_USAGE ( .BOTH. , #172 ) ;
#172 = SURFACE_SIDE_STYLE ('',( #173 ) ) ;
#173 = SURFACE_STYLE_FILL_AREA ( #174 ) ;
#174 = FILL_AREA_STYLE ('',( #178 ) ) ;
#175 =( LENGTH_UNIT ( ) NAMED_UNIT ( * ) SI_UNIT ( .MILLI., .METRE. ) );
#176 = DIRECTION ( 'NONE',  ( 1.000000000000000000, 0.0000000000000000000, 0.0000000000000000000 ) ) ;
#177 = PLANE ( 'NONE',  #169 ) ;
#178 = FILL_AREA_STYLE_COLOUR ( '', #199 ) ;
#179 = DIRECTION ( 'NONE',  ( 1.000000000000000000, 0.0000000000000000000, 0.0000000000000000000 ) ) ;
#180 = DIRECTION ( 'NONE',  ( -0.0000000000000000000, -0.0000000000000000000, 1.000000000000000000 ) ) ;
#181 = CARTESIAN_POINT ( 'NONE',  ( 0.0000000000000000000, 0.0000000000000000000, 2.790002738225834600 ) ) ;
#182 = AXIS2_PLACEMENT_3D ( 'NONE', #181, #180, #179 ) ;
#183 = CARTESIAN_POINT ( 'NONE',  ( 0.0000000000000000000, 0.0000000000000000000, 39.30999726177417100 ) ) ;
#184 =( NAMED_UNIT ( * ) PLANE_ANGLE_UNIT ( ) SI_UNIT ( $, .RADIAN. ) );
#185 =( GEOMETRIC_REPRESENTATION_CONTEXT ( 3 ) GLOBAL_UNCERTAINTY_ASSIGNED_CONTEXT ( ( #203 ) ) GLOBAL_UNIT_ASSIGNED_CONTEXT ( ( #175, #190, #148 ) ) REPRESENTATION_CONTEXT ( 'NONE', 'WORKASPACE' ) );
#186 = DIRECTION ( 'NONE',  ( -0.0000000000000000000, -0.0000000000000000000, 1.000000000000000000 ) ) ;
#187 = CARTESIAN_POINT ( 'NONE',  ( 12.50000000000000000, 0.0000000000000000000, 7.977150532203490100 ) ) ;
#188 = LINE ( 'NONE', #187, #151 ) ;
#189 = CYLINDRICAL_SURFACE ( 'NONE', #160, 12.50000000000000000 ) ;
#190 =( NAMED_UNIT ( * ) PLANE_ANGLE_UNIT ( ) SI_UNIT ( $, .RADIAN. ) );
#191 = CARTESIAN_POINT ( 'NONE',  ( 12.50000000000000000, 0.0000000000000000000, 2.790002738225834600 ) ) ;
#192 = CARTESIAN_POINT ( 'NONE',  ( 0.0000000000000000000, 0.0000000000000000000, 2.790002738225834600 ) ) ;
#193 = AXIS2_PLACEMENT_3D ( 'NONE', #192, #196, #195 ) ;
#194 = FACE_OUTER_BOUND ( 'NONE', #34, .T. ) ;
#195 = DIRECTION ( 'NONE',  ( 1.000000000000000000, 0.0000000000000000000, 0.0000000000000000000 ) ) ;
#196 = DIRECTION ( 'NONE',  ( -0.0000000000000000000, -0.0000000000000000000, 1.000000000000000000 ) ) ;
#197 = MECHANICAL_DESIGN_GEOMETRIC_PRESENTATION_REPRESENTATION (  '', ( #165 ), #185 ) ;
#198 = CIRCLE ( 'NONE', #182, 12.50000000000000000 ) ;
#199 = COLOUR_RGB ( '',0.7960784313725489700, 0.8235294117647058400, 0.9372549019607843100 ) ;
#200 = MECHANICAL_DESIGN_GEOMETRIC_PRESENTATION_REPRESENTATION (  '', ( #202 ), #232 ) ;
#201 = PRESENTATION_LAYER_ASSIGNMENT (  '', '', ( #202 ) ) ;
#202 = STYLED_ITEM ( 'NONE', ( #170 ), #67 ) ;
#203 = UNCERTAINTY_MEASURE_WITH_UNIT (LENGTH_MEASURE( 1.000000000000000100E-005 ), #175, 'distance_accuracy_value', 'NONE');
#204 = PRESENTATION_STYLE_ASSIGNMENT (( #205 ) ) ;
#205 = SURFACE_STYLE_USAGE ( .BOTH. , #206 ) ;
#206 = SURFACE_SIDE_STYLE ('',( #156 ) ) ;
#207 =( LENGTH_UNIT ( ) NAMED_UNIT ( * ) SI_UNIT ( .MILLI., .METRE. ) );
#208 =( GEOMETRIC_REPRESENTATION_CONTEXT ( 3 ) GLOBAL_UNCERTAINTY_ASSIGNED_CONTEXT ( ( #236 ) ) GLOBAL_UNIT_ASSIGNED_CONTEXT ( ( #207, #217, #237 ) ) REPRESENTATION_CONTEXT ( 'NONE', 'WORKASPACE' ) );
#209 = PRESENTATION_STYLE_ASSIGNMENT (( #220 ) ) ;
#210 = DIRECTION ( 'NONE',  ( -0.0000000000000000000, -0.0000000000000000000, 1.000000000000000000 ) ) ;
#211 = FILL_AREA_STYLE_COLOUR ( '', #212 ) ;
#212 = COLOUR_RGB ( '',0.9568627450980391500, 0.9490196078431372100, 0.9607843137254902200 ) ;
#213 = FACE_OUTER_BOUND ( 'NONE', #12, .T. ) ;
#214 = AXIS2_PLACEMENT_3D ( 'NONE', #231, #210, #215 ) ;
#215 = DIRECTION ( 'NONE',  ( 1.000000000000000000, 0.0000000000000000000, 0.0000000000000000000 ) ) ;
#216 = UNCERTAINTY_MEASURE_WITH_UNIT (LENGTH_MEASURE( 1.000000000000000100E-005 ), #154, 'distance_accuracy_value', 'NONE');
#217 =( NAMED_UNIT ( * ) PLANE_ANGLE_UNIT ( ) SI_UNIT ( $, .RADIAN. ) );
#218 =( NAMED_UNIT ( * ) PLANE_ANGLE_UNIT ( ) SI_UNIT ( $, .RADIAN. ) );
#219 = PRESENTATION_LAYER_ASSIGNMENT (  '', '', ( #227 ) ) ;
#220 = SURFACE_STYLE_USAGE ( .BOTH. , #222 ) ;
#221 = ADVANCED_BREP_SHAPE_REPRESENTATION ( '19072-E0W', ( #67, #249 ), #208 ) ;
#222 = SURFACE_SIDE_STYLE ('',( #226 ) ) ;
#223 = UNCERTAINTY_MEASURE_WITH_UNIT (LENGTH_MEASURE( 1.000000000000000100E-005 ), #234, 'distance_accuracy_value', 'NONE');
#224 =( NAMED_UNIT ( * ) SI_UNIT ( $, .STERADIAN. ) SOLID_ANGLE_UNIT ( ) );
#225 =( GEOMETRIC_REPRESENTATION_CONTEXT ( 3 ) GLOBAL_UNCERTAINTY_ASSIGNED_CONTEXT ( ( #223 ) ) GLOBAL_UNIT_ASSIGNED_CONTEXT ( ( #234, #218, #235 ) ) REPRESENTATION_CONTEXT ( 'NONE', 'WORKASPACE' ) );
#226 = SURFACE_STYLE_FILL_AREA ( #230 ) ;
#227 = STYLED_ITEM ( 'NONE', ( #209 ), #68 ) ;
#228 =( NAMED_UNIT ( * ) PLANE_ANGLE_UNIT ( ) SI_UNIT ( $, .RADIAN. ) );
#229 = CYLINDRICAL_SURFACE ( 'NONE', #214, 12.50000000000000000 ) ;
#230 = FILL_AREA_STYLE ('',( #211 ) ) ;
#231 = CARTESIAN_POINT ( 'NONE',  ( 0.0000000000000000000, 0.0000000000000000000, 7.977150532203490100 ) ) ;
#232 =( GEOMETRIC_REPRESENTATION_CONTEXT ( 3 ) GLOBAL_UNCERTAINTY_ASSIGNED_CONTEXT ( ( #216 ) ) GLOBAL_UNIT_ASSIGNED_CONTEXT ( ( #154, #228, #224 ) ) REPRESENTATION_CONTEXT ( 'NONE', 'WORKASPACE' ) );
#233 = MECHANICAL_DESIGN_GEOMETRIC_PRESENTATION_REPRESENTATION (  '', ( #227 ), #225 ) ;
#234 =( LENGTH_UNIT ( ) NAMED_UNIT ( * ) SI_UNIT ( .MILLI., .METRE. ) );
#235 =( NAMED_UNIT ( * ) SI_UNIT ( $, .STERADIAN. ) SOLID_ANGLE_UNIT ( ) );
#236 = UNCERTAINTY_MEASURE_WITH_UNIT (LENGTH_MEASURE( 1.000000000000000100E-005 ), #207, 'distance_accuracy_value', 'NONE');
#237 =( NAMED_UNIT ( * ) SI_UNIT ( $, .STERADIAN. ) SOLID_ANGLE_UNIT ( ) );
#238 = MECHANICAL_DESIGN_GEOMETRIC_PRESENTATION_REPRESENTATION (  '', ( #244 ), #240 ) ;
#239 = PRESENTATION_LAYER_ASSIGNMENT (  '', '', ( #244 ) ) ;
#240 =( GEOMETRIC_REPRESENTATION_CONTEXT ( 3 ) GLOBAL_UNCERTAINTY_ASSIGNED_CONTEXT ( ( #245 ) ) GLOBAL_UNIT_ASSIGNED_CONTEXT ( ( #247, #241, #242 ) ) REPRESENTATION_CONTEXT ( 'NONE', 'WORKASPACE' ) );
#241 =( NAMED_UNIT ( * ) PLANE_ANGLE_UNIT ( ) SI_UNIT ( $, .RADIAN. ) );
#242 =( NAMED_UNIT ( * ) SI_UNIT ( $, .STERADIAN. ) SOLID_ANGLE_UNIT ( ) );
#243 = DIRECTION ( 'NONE',  ( 0.0000000000000000000, 0.0000000000000000000, 1.000000000000000000 ) ) ;
#244 = STYLED_ITEM ( 'NONE', ( #43 ), #221 ) ;
#245 = UNCERTAINTY_MEASURE_WITH_UNIT (LENGTH_MEASURE( 1.000000000000000100E-005 ), #247, 'distance_accuracy_value', 'NONE');
#246 = CARTESIAN_POINT ( 'NONE',  ( 0.0000000000000000000, 0.0000000000000000000, 0.0000000000000000000 ) ) ;
#247 =( LENGTH_UNIT ( ) NAMED_UNIT ( * ) SI_UNIT ( .MILLI., .METRE. ) );
#248 = DIRECTION ( 'NONE',  ( 1.000000000000000000, 0.0000000000000000000, 0.0000000000000000000 ) ) ;
#249 = AXIS2_PLACEMENT_3D ( 'NONE', #246, #243, #248 ) ;
#250 = APPLICATION_CONTEXT ( 'automotive_design' ) ;
#251 = PRODUCT_DEFINITION_SHAPE ( 'NONE', 'NONE',  #254 ) ;
#252 = PRODUCT_RELATED_PRODUCT_CATEGORY ( 'part', '', ( #255 ) ) ;
#253 = PRODUCT_DEFINITION_FORMATION_WITH_SPECIFIED_SOURCE ( 'ANY', '', #255, .NOT_KNOWN. ) ;
#254 = PRODUCT_DEFINITION ( 'UNKNOWN', '', #253, #259 ) ;
#255 = PRODUCT ( '19072-E0W', '19072-E0W', '', ( #256 ) ) ;
#256 = PRODUCT_CONTEXT ( 'NONE', #250, 'mechanical' ) ;
#257 = APPLICATION_PROTOCOL_DEFINITION ( 'draft international standard', 'automotive_design', 1998, #250 ) ;
#258 = SHAPE_DEFINITION_REPRESENTATION ( #251, #221 ) ;
#259 = PRODUCT_DEFINITION_CONTEXT ( 'detailed design', #261, 'design' ) ;
#260 = APPLICATION_PROTOCOL_DEFINITION ( 'draft international standard', 'automotive_design', 1998, #261 ) ;
#261 = APPLICATION_CONTEXT ( 'automotive_design' ) ;
ENDSEC;
END-ISO-10303-21;
