ISO-10303-21;
HEADER;
FILE_DESCRIPTION (( 'STEP AP203' ),
    '1' );
FILE_NAME ('Web Model 47188_47190.step',
    '2017-07-13T14:25:00',
    ( '' ),
    ( '' ),
    'SwSTEP 2.0',
    'SolidWorks 2016',
    '' );
FILE_SCHEMA (( 'CONFIG_CONTROL_DESIGN' ));
ENDSEC;

DATA;
#1 = DIRECTION ( 'NONE',  ( -0.0000000000000000000, -0.0000000000000000000, -1.000000000000000000 ) ) ;
#2 = CC_DESIGN_SECURITY_CLASSIFICATION ( #289, ( #202 ) ) ;
#3 = DATE_AND_TIME ( #92, #177 ) ;
#4 = ORIENTED_EDGE ( 'NONE', *, *, #292, .F. ) ;
#5 = LINE ( 'NONE', #111, #234 ) ;
#6 = ORIENTED_EDGE ( 'NONE', *, *, #219, .T. ) ;
#7 = FACE_OUTER_BOUND ( 'NONE', #184, .T. ) ;
#8 = VERTEX_POINT ( 'NONE', #282 ) ;
#9 = ORIENTED_EDGE ( 'NONE', *, *, #148, .F. ) ;
#10 = EDGE_CURVE ( 'NONE', #159, #197, #257, .T. ) ;
#11 = DIRECTION ( 'NONE',  ( -0.7071067811865474600, -0.7071067811865475700, 0.0000000000000000000 ) ) ;
#12 = PERSON_AND_ORGANIZATION ( #310, #224 ) ;
#13 = ORIENTED_EDGE ( 'NONE', *, *, #337, .T. ) ;
#14 = LINE ( 'NONE', #236, #313 ) ;
#15 = ORIENTED_EDGE ( 'NONE', *, *, #37, .F. ) ;
#16 = CARTESIAN_POINT ( 'NONE',  ( -5.000000000000001800, 5.000000000000000900, 5.000000000000000000 ) ) ;
#17 = DIRECTION ( 'NONE',  ( 1.000000000000000000, 0.0000000000000000000, 0.0000000000000000000 ) ) ;
#18 = LINE ( 'NONE', #52, #183 ) ;
#19 = VERTEX_POINT ( 'NONE', #117 ) ;
#20 = VERTEX_POINT ( 'NONE', #79 ) ;
#21 = DIRECTION ( 'NONE',  ( 0.0000000000000000000, -0.0000000000000000000, 1.000000000000000000 ) ) ;
#22 = DIRECTION ( 'NONE',  ( -1.734723475976807100E-016, 1.000000000000000000, 0.0000000000000000000 ) ) ;
#23 = PRODUCT_RELATED_PRODUCT_CATEGORY ( 'detail', '', ( #240 ) ) ;
#24 = LOCAL_TIME ( 10, 25, 0.0000000000000000000, #112 ) ;
#25 = EDGE_LOOP ( 'NONE', ( #145, #36, #67, #6 ) ) ;
#26 = LINE ( 'NONE', #262, #318 ) ;
#27 = MECHANICAL_CONTEXT ( 'NONE', #351, 'mechanical' ) ;
#28 = PERSON_AND_ORGANIZATION_ROLE ( 'classification_officer' ) ;
#29 = EDGE_CURVE ( 'NONE', #70, #19, #14, .T. ) ;
#30 = FACE_OUTER_BOUND ( 'NONE', #65, .T. ) ;
#31 = ORIENTED_EDGE ( 'NONE', *, *, #148, .T. ) ;
#32 = MANIFOLD_SOLID_BREP ( 'Boss-Extrude2', #195 ) ;
#33 = ORIENTED_EDGE ( 'NONE', *, *, #76, .F. ) ;
#34 = AXIS2_PLACEMENT_3D ( 'NONE', #281, #115, #298 ) ;
#35 = CALENDAR_DATE ( 2017, 13, 7 ) ;
#36 = ORIENTED_EDGE ( 'NONE', *, *, #226, .F. ) ;
#37 = EDGE_CURVE ( 'NONE', #55, #57, #26, .T. ) ;
#38 = ORIENTED_EDGE ( 'NONE', *, *, #219, .F. ) ;
#39 = VECTOR ( 'NONE', #345, 1000.000000000000000 ) ;
#40 = DESIGN_CONTEXT ( 'detailed design', #59, 'design' ) ;
#41 = ORIENTED_EDGE ( 'NONE', *, *, #191, .F. ) ;
#42 = DATE_AND_TIME ( #135, #214 ) ;
#43 = ORIENTED_EDGE ( 'NONE', *, *, #276, .F. ) ;
#44 = ORIENTED_EDGE ( 'NONE', *, *, #206, .T. ) ;
#45 = ORIENTED_EDGE ( 'NONE', *, *, #29, .T. ) ;
#46 = EDGE_CURVE ( 'NONE', #19, #113, #252, .T. ) ;
#47 = DIRECTION ( 'NONE',  ( -0.0000000000000000000, -0.0000000000000000000, -1.000000000000000000 ) ) ;
#48 = CARTESIAN_POINT ( 'NONE',  ( -5.000000000000000000, -4.999999999999999100, 5.000000000000000000 ) ) ;
#49 = VECTOR ( 'NONE', #181, 1000.000000000000000 ) ;
#50 = CARTESIAN_POINT ( 'NONE',  ( -5.000000000000001800, 5.000000000000000900, 5.000000000000000000 ) ) ;
#51 = DIRECTION ( 'NONE',  ( 1.000000000000000000, 0.0000000000000000000, 0.0000000000000000000 ) ) ;
#52 = CARTESIAN_POINT ( 'NONE',  ( 15.00000000000000000, -4.999999999999999100, -5.000000000000000000 ) ) ;
#53 = AXIS2_PLACEMENT_3D ( 'NONE', #242, #350, #216 ) ;
#54 = PERSON_AND_ORGANIZATION ( #310, #224 ) ;
#55 = VERTEX_POINT ( 'NONE', #73 ) ;
#56 = EDGE_LOOP ( 'NONE', ( #157, #33, #15, #167 ) ) ;
#57 = VERTEX_POINT ( 'NONE', #199 ) ;
#58 = EDGE_CURVE ( 'NONE', #130, #72, #300, .T. ) ;
#59 = APPLICATION_CONTEXT ( 'configuration controlled 3d designs of mechanical parts and assemblies' ) ;
#60 = APPROVAL_STATUS ( 'not_yet_approved' ) ;
#61 = LINE ( 'NONE', #180, #341 ) ;
#62 = ORIENTED_EDGE ( 'NONE', *, *, #58, .F. ) ;
#63 = ORIENTED_EDGE ( 'NONE', *, *, #191, .T. ) ;
#64 = ORIENTED_EDGE ( 'NONE', *, *, #245, .F. ) ;
#65 = EDGE_LOOP ( 'NONE', ( #44, #323, #144 ) ) ;
#66 = VECTOR ( 'NONE', #325, 1000.000000000000000 ) ;
#67 = ORIENTED_EDGE ( 'NONE', *, *, #206, .F. ) ;
#68 = DIRECTION ( 'NONE',  ( 0.0000000000000000000, -0.0000000000000000000, 1.000000000000000000 ) ) ;
#69 = CC_DESIGN_PERSON_AND_ORGANIZATION_ASSIGNMENT ( #143, #243, ( #240 ) ) ;
#70 = VERTEX_POINT ( 'NONE', #222 ) ;
#71 = EDGE_LOOP ( 'NONE', ( #41, #9, #128, #146 ) ) ;
#72 = VERTEX_POINT ( 'NONE', #141 ) ;
#73 = CARTESIAN_POINT ( 'NONE',  ( 5.000000000000000000, -4.999999999999999100, 5.000000000000000000 ) ) ;
#74 = AXIS2_PLACEMENT_3D ( 'NONE', #179, #283, #116 ) ;
#75 = CARTESIAN_POINT ( 'NONE',  ( -5.000000000000001800, 5.000000000000000900, 5.000000000000000000 ) ) ;
#76 = EDGE_CURVE ( 'NONE', #57, #108, #105, .T. ) ;
#77 = DIRECTION ( 'NONE',  ( 1.000000000000000000, 0.0000000000000000000, 0.0000000000000000000 ) ) ;
#78 = LOCAL_TIME ( 10, 25, 0.0000000000000000000, #171 ) ;
#79 = CARTESIAN_POINT ( 'NONE',  ( -5.000000000000001800, 5.000000000000000900, -5.000000000000000000 ) ) ;
#80 = VECTOR ( 'NONE', #223, 1000.000000000000000 ) ;
#81 = PLANE ( 'NONE',  #74 ) ;
#82 = AXIS2_PLACEMENT_3D ( 'NONE', #205, #11, #232 ) ;
#83 = CARTESIAN_POINT ( 'NONE',  ( 15.00000000000000000, -4.999999999999999100, -5.000000000000000000 ) ) ;
#84 = DIRECTION ( 'NONE',  ( -0.7071067811865475700, 0.7071067811865474600, 0.0000000000000000000 ) ) ;
#85 = DIRECTION ( 'NONE',  ( 1.000000000000000000, 0.0000000000000000000, 0.0000000000000000000 ) ) ;
#86 = EDGE_LOOP ( 'NONE', ( #88, #38, #189, #106 ) ) ;
#87 = ORIENTED_EDGE ( 'NONE', *, *, #29, .F. ) ;
#88 = ORIENTED_EDGE ( 'NONE', *, *, #292, .T. ) ;
#89 = DIRECTION ( 'NONE',  ( -0.7071067811865475700, 0.7071067811865474600, 0.0000000000000000000 ) ) ;
#90 = ADVANCED_FACE ( 'NONE', ( #354 ), #229, .T. ) ;
#91 = DIRECTION ( 'NONE',  ( 0.0000000000000000000, 1.000000000000000000, 0.0000000000000000000 ) ) ;
#92 = CALENDAR_DATE ( 2017, 13, 7 ) ;
#93 = APPROVAL_STATUS ( 'not_yet_approved' ) ;
#94 = EDGE_CURVE ( 'NONE', #57, #198, #173, .T. ) ;
#95 = ORIENTED_EDGE ( 'NONE', *, *, #132, .F. ) ;
#96 = VECTOR ( 'NONE', #280, 1000.000000000000000 ) ;
#97 = ORIENTED_EDGE ( 'NONE', *, *, #10, .T. ) ;
#98 = FACE_OUTER_BOUND ( 'NONE', #25, .T. ) ;
#99 = ORIENTED_EDGE ( 'NONE', *, *, #301, .F. ) ;
#100 = ORIENTED_EDGE ( 'NONE', *, *, #276, .T. ) ;
#101 = PRODUCT_DEFINITION ( 'UNKNOWN', '', #202, #40 ) ;
#102 = PERSON_AND_ORGANIZATION ( #310, #224 ) ;
#103 = EDGE_CURVE ( 'NONE', #70, #130, #5, .T. ) ;
#104 = ORIENTED_EDGE ( 'NONE', *, *, #10, .F. ) ;
#105 = LINE ( 'NONE', #123, #80 ) ;
#106 = ORIENTED_EDGE ( 'NONE', *, *, #76, .T. ) ;
#107 = LINE ( 'NONE', #212, #315 ) ;
#108 = VERTEX_POINT ( 'NONE', #176 ) ;
#109 = ORIENTED_EDGE ( 'NONE', *, *, #103, .F. ) ;
#110 = ADVANCED_FACE ( 'NONE', ( #162 ), #324, .F. ) ;
#111 = CARTESIAN_POINT ( 'NONE',  ( -5.000000000000001800, 5.000000000000000900, 5.000000000000000000 ) ) ;
#112 = COORDINATED_UNIVERSAL_TIME_OFFSET ( 5, 0, .BEHIND. ) ;
#113 = VERTEX_POINT ( 'NONE', #297 ) ;
#114 = FACE_OUTER_BOUND ( 'NONE', #163, .T. ) ;
#115 = DIRECTION ( 'NONE',  ( -0.7071067811865474600, -0.7071067811865475700, 0.0000000000000000000 ) ) ;
#116 = DIRECTION ( 'NONE',  ( 1.000000000000000000, 0.0000000000000000000, 0.0000000000000000000 ) ) ;
#117 = CARTESIAN_POINT ( 'NONE',  ( 5.000000000000000000, -4.999999999999999100, 5.000000000000000000 ) ) ;
#118 = VECTOR ( 'NONE', #85, 1000.000000000000000 ) ;
#119 = PLANE ( 'NONE',  #169 ) ;
#120 = EDGE_LOOP ( 'NONE', ( #45, #100, #192, #109 ) ) ;
#121 = EDGE_LOOP ( 'NONE', ( #138, #62, #137, #97 ) ) ;
#122 = DIRECTION ( 'NONE',  ( -0.0000000000000000000, 0.0000000000000000000, 1.000000000000000000 ) ) ;
#123 = CARTESIAN_POINT ( 'NONE',  ( -5.000000000000001800, 5.000000000000000900, 5.000000000000000000 ) ) ;
#124 = ADVANCED_FACE ( 'NONE', ( #293 ), #258, .F. ) ;
#125 = CARTESIAN_POINT ( 'NONE',  ( 0.0000000000000000000, 0.0000000000000000000, -5.000000000000000000 ) ) ;
#126 = APPROVAL ( #93, 'UNSPECIFIED' ) ;
#127 = LOCAL_TIME ( 10, 25, 0.0000000000000000000, #203 ) ;
#128 = ORIENTED_EDGE ( 'NONE', *, *, #103, .T. ) ;
#129 = AXIS2_PLACEMENT_3D ( 'NONE', #50, #263, #84 ) ;
#130 = VERTEX_POINT ( 'NONE', #230 ) ;
#131 =( NAMED_UNIT ( * ) PLANE_ANGLE_UNIT ( ) SI_UNIT ( $, .RADIAN. ) );
#132 = EDGE_CURVE ( 'NONE', #113, #197, #343, .T. ) ;
#133 = PERSON_AND_ORGANIZATION_ROLE ( 'creator' ) ;
#134 = LINE ( 'NONE', #154, #150 ) ;
#135 = CALENDAR_DATE ( 2017, 13, 7 ) ;
#136 = EDGE_LOOP ( 'NONE', ( #172, #104, #43, #270 ) ) ;
#137 = ORIENTED_EDGE ( 'NONE', *, *, #235, .F. ) ;
#138 = ORIENTED_EDGE ( 'NONE', *, *, #301, .T. ) ;
#139 = VECTOR ( 'NONE', #303, 1000.000000000000000 ) ;
#140 = ORIENTED_EDGE ( 'NONE', *, *, #337, .F. ) ;
#141 = CARTESIAN_POINT ( 'NONE',  ( 4.999999999999998200, 5.000000000000000900, -5.000000000000000000 ) ) ;
#142 = CC_DESIGN_APPROVAL ( #126, ( #101 ) ) ;
#143 = PERSON_AND_ORGANIZATION ( #310, #224 ) ;
#144 = ORIENTED_EDGE ( 'NONE', *, *, #94, .T. ) ;
#145 = ORIENTED_EDGE ( 'NONE', *, *, #245, .T. ) ;
#146 = ORIENTED_EDGE ( 'NONE', *, *, #58, .T. ) ;
#147 = DIRECTION ( 'NONE',  ( 1.000000000000000000, 0.0000000000000000000, 0.0000000000000000000 ) ) ;
#148 = EDGE_CURVE ( 'NONE', #70, #20, #295, .T. ) ;
#149 = CARTESIAN_POINT ( 'NONE',  ( 5.000000000000000000, -4.999999999999999100, -5.000000000000000000 ) ) ;
#150 = VECTOR ( 'NONE', #51, 1000.000000000000000 ) ;
#151 = ORIENTED_EDGE ( 'NONE', *, *, #170, .F. ) ;
#152 = CARTESIAN_POINT ( 'NONE',  ( 5.000000000000000000, -4.999999999999999100, 5.000000000000000000 ) ) ;
#153 = CARTESIAN_POINT ( 'NONE',  ( 15.00000000000000000, -4.999999999999999100, 5.000000000000000000 ) ) ;
#154 = CARTESIAN_POINT ( 'NONE',  ( 5.000000000000000000, -4.999999999999999100, 5.000000000000000000 ) ) ;
#155 = ADVANCED_FACE ( 'NONE', ( #114 ), #81, .F. ) ;
#156 = DIRECTION ( 'NONE',  ( -1.000000000000000000, 0.0000000000000000000, -0.0000000000000000000 ) ) ;
#157 = ORIENTED_EDGE ( 'NONE', *, *, #170, .T. ) ;
#158 = VERTEX_POINT ( 'NONE', #208 ) ;
#159 = VERTEX_POINT ( 'NONE', #327 ) ;
#160 = PLANE ( 'NONE',  #339 ) ;
#161 = APPROVAL_STATUS ( 'not_yet_approved' ) ;
#162 = FACE_OUTER_BOUND ( 'NONE', #121, .T. ) ;
#163 = EDGE_LOOP ( 'NONE', ( #140, #63, #99, #95 ) ) ;
#164 = CARTESIAN_POINT ( 'NONE',  ( 15.00000000000000000, -4.999999999999999100, 5.000000000000000000 ) ) ;
#165 = ORIENTED_EDGE ( 'NONE', *, *, #46, .F. ) ;
#166 = EDGE_LOOP ( 'NONE', ( #13, #165, #87, #31 ) ) ;
#167 = ORIENTED_EDGE ( 'NONE', *, *, #226, .T. ) ;
#168 = CC_DESIGN_PERSON_AND_ORGANIZATION_ASSIGNMENT ( #275, #133, ( #101 ) ) ;
#169 = AXIS2_PLACEMENT_3D ( 'NONE', #182, #347, #211 ) ;
#170 = EDGE_CURVE ( 'NONE', #8, #108, #61, .T. ) ;
#171 = COORDINATED_UNIVERSAL_TIME_OFFSET ( 5, 0, .BEHIND. ) ;
#172 = ORIENTED_EDGE ( 'NONE', *, *, #132, .T. ) ;
#173 = LINE ( 'NONE', #75, #96 ) ;
#174 = AXIS2_PLACEMENT_3D ( 'NONE', #228, #253, #68 ) ;
#175 = LINE ( 'NONE', #333, #264 ) ;
#176 = CARTESIAN_POINT ( 'NONE',  ( -5.000000000000001800, 5.000000000000000900, -5.000000000000000000 ) ) ;
#177 = LOCAL_TIME ( 10, 25, 0.0000000000000000000, #251 ) ;
#178 = VECTOR ( 'NONE', #1, 1000.000000000000000 ) ;
#179 = CARTESIAN_POINT ( 'NONE',  ( 0.0000000000000000000, 0.0000000000000000000, -5.000000000000000000 ) ) ;
#180 = CARTESIAN_POINT ( 'NONE',  ( 5.000000000000000000, -4.999999999999999100, -5.000000000000000000 ) ) ;
#181 = DIRECTION ( 'NONE',  ( -0.0000000000000000000, -0.0000000000000000000, -1.000000000000000000 ) ) ;
#182 = CARTESIAN_POINT ( 'NONE',  ( 0.0000000000000000000, 0.0000000000000000000, 5.000000000000000000 ) ) ;
#183 = VECTOR ( 'NONE', #89, 1000.000000000000000 ) ;
#184 = EDGE_LOOP ( 'NONE', ( #64, #4, #151 ) ) ;
#185 = PLANE ( 'NONE',  #278 ) ;
#186 = CC_DESIGN_DATE_AND_TIME_ASSIGNMENT ( #321, #314, ( #101 ) ) ;
#187 = DIRECTION ( 'NONE',  ( 0.7071067811865475700, -0.7071067811865474600, 0.0000000000000000000 ) ) ;
#188 = APPROVAL_DATE_TIME ( #256, #225 ) ;
#189 = ORIENTED_EDGE ( 'NONE', *, *, #94, .F. ) ;
#190 = VECTOR ( 'NONE', #344, 1000.000000000000000 ) ;
#191 = EDGE_CURVE ( 'NONE', #20, #72, #284, .T. ) ;
#192 = ORIENTED_EDGE ( 'NONE', *, *, #235, .T. ) ;
#193 = PERSON_AND_ORGANIZATION_ROLE ( 'creator' ) ;
#194 = FACE_OUTER_BOUND ( 'NONE', #120, .T. ) ;
#195 = CLOSED_SHELL ( 'NONE', ( #231, #322, #110, #90, #266, #155 ) ) ;
#196 = APPROVAL_PERSON_ORGANIZATION ( #269, #225, #336 ) ;
#197 = VERTEX_POINT ( 'NONE', #83 ) ;
#198 = VERTEX_POINT ( 'NONE', #261 ) ;
#199 = CARTESIAN_POINT ( 'NONE',  ( -5.000000000000001800, 5.000000000000000900, 5.000000000000000000 ) ) ;
#200 = LINE ( 'NONE', #153, #329 ) ;
#201 = CLOSED_SHELL ( 'NONE', ( #331, #124, #348, #239, #309 ) ) ;
#202 = PRODUCT_DEFINITION_FORMATION_WITH_SPECIFIED_SOURCE ( 'ANY', '', #240, .NOT_KNOWN. ) ;
#203 = COORDINATED_UNIVERSAL_TIME_OFFSET ( 5, 0, .BEHIND. ) ;
#204 = AXIS2_PLACEMENT_3D ( 'NONE', #285, #122, #306 ) ;
#205 = CARTESIAN_POINT ( 'NONE',  ( 15.00000000000000000, -4.999999999999999100, 5.000000000000000000 ) ) ;
#206 = EDGE_CURVE ( 'NONE', #198, #55, #277, .T. ) ;
#207 = CARTESIAN_POINT ( 'NONE',  ( 5.000000000000000000, -4.999999999999999100, 5.000000000000000000 ) ) ;
#208 = CARTESIAN_POINT ( 'NONE',  ( -5.000000000000000000, -4.999999999999999100, -5.000000000000000000 ) ) ;
#209 = DIRECTION ( 'NONE',  ( -0.7071067811865475700, 0.7071067811865474600, 0.0000000000000000000 ) ) ;
#210 = VECTOR ( 'NONE', #17, 1000.000000000000000 ) ;
#211 = DIRECTION ( 'NONE',  ( -1.000000000000000000, 0.0000000000000000000, -0.0000000000000000000 ) ) ;
#212 = CARTESIAN_POINT ( 'NONE',  ( -5.000000000000001800, 5.000000000000000900, -5.000000000000000000 ) ) ;
#213 = DIRECTION ( 'NONE',  ( 0.0000000000000000000, 1.000000000000000000, 0.0000000000000000000 ) ) ;
#214 = LOCAL_TIME ( 10, 25, 0.0000000000000000000, #279 ) ;
#215 = DIRECTION ( 'NONE',  ( 1.000000000000000000, 1.734723475976807100E-016, -0.0000000000000000000 ) ) ;
#216 = DIRECTION ( 'NONE',  ( 1.000000000000000000, 0.0000000000000000000, 0.0000000000000000000 ) ) ;
#217 = SECURITY_CLASSIFICATION_LEVEL ( 'unclassified' ) ;
#218 = LINE ( 'NONE', #152, #39 ) ;
#219 = EDGE_CURVE ( 'NONE', #198, #158, #338, .T. ) ;
#220 = PRODUCT_DEFINITION_SHAPE ( 'NONE', 'NONE',  #101 ) ;
#221 = ADVANCED_BREP_SHAPE_REPRESENTATION ( 'Web Model 47188_47190', ( #346, #32, #53 ), #320 ) ;
#222 = CARTESIAN_POINT ( 'NONE',  ( -5.000000000000001800, 5.000000000000000900, 5.000000000000000000 ) ) ;
#223 = DIRECTION ( 'NONE',  ( -0.0000000000000000000, -0.0000000000000000000, -1.000000000000000000 ) ) ;
#224 = ORGANIZATION ( 'UNSPECIFIED', 'UNSPECIFIED', '' ) ;
#225 = APPROVAL ( #161, 'UNSPECIFIED' ) ;
#226 = EDGE_CURVE ( 'NONE', #55, #8, #218, .T. ) ;
#227 = VECTOR ( 'NONE', #77, 1000.000000000000000 ) ;
#228 = CARTESIAN_POINT ( 'NONE',  ( -5.000000000000001800, 5.000000000000000900, 5.000000000000000000 ) ) ;
#229 = PLANE ( 'NONE',  #174 ) ;
#230 = CARTESIAN_POINT ( 'NONE',  ( 4.999999999999998200, 5.000000000000000900, 5.000000000000000000 ) ) ;
#231 = ADVANCED_FACE ( 'NONE', ( #273 ), #328, .F. ) ;
#232 = DIRECTION ( 'NONE',  ( 0.7071067811865475700, -0.7071067811865474600, 0.0000000000000000000 ) ) ;
#233 = APPROVAL_DATE_TIME ( #294, #334 ) ;
#234 = VECTOR ( 'NONE', #147, 1000.000000000000000 ) ;
#235 = EDGE_CURVE ( 'NONE', #159, #130, #200, .T. ) ;
#236 = CARTESIAN_POINT ( 'NONE',  ( -5.000000000000001800, 5.000000000000000900, 5.000000000000000000 ) ) ;
#237 = PLANE ( 'NONE',  #204 ) ;
#238 = DIRECTION ( 'NONE',  ( 1.734723475976807100E-016, -1.000000000000000000, 0.0000000000000000000 ) ) ;
#239 = ADVANCED_FACE ( 'NONE', ( #30 ), #119, .F. ) ;
#240 = PRODUCT ( 'Web Model 47188_47190', 'Web Model 47188_47190', '', ( #27 ) ) ;
#241 = CC_DESIGN_APPROVAL ( #225, ( #202 ) ) ;
#242 = CARTESIAN_POINT ( 'NONE',  ( 0.0000000000000000000, 0.0000000000000000000, 0.0000000000000000000 ) ) ;
#243 = PERSON_AND_ORGANIZATION_ROLE ( 'design_owner' ) ;
#244 = APPROVAL_PERSON_ORGANIZATION ( #299, #334, #272 ) ;
#245 = EDGE_CURVE ( 'NONE', #158, #8, #319, .T. ) ;
#246 = VECTOR ( 'NONE', #47, 1000.000000000000000 ) ;
#247 = DATE_TIME_ROLE ( 'classification_date' ) ;
#248 = AXIS2_PLACEMENT_3D ( 'NONE', #125, #308, #156 ) ;
#249 = DIRECTION ( 'NONE',  ( 0.7071067811865475700, -0.7071067811865474600, 0.0000000000000000000 ) ) ;
#250 = FACE_OUTER_BOUND ( 'NONE', #86, .T. ) ;
#251 = COORDINATED_UNIVERSAL_TIME_OFFSET ( 5, 0, .BEHIND. ) ;
#252 = LINE ( 'NONE', #207, #178 ) ;
#253 = DIRECTION ( 'NONE',  ( 0.0000000000000000000, 1.000000000000000000, 0.0000000000000000000 ) ) ;
#254 = FACE_OUTER_BOUND ( 'NONE', #136, .T. ) ;
#255 = CC_DESIGN_PERSON_AND_ORGANIZATION_ASSIGNMENT ( #102, #193, ( #202 ) ) ;
#256 = DATE_AND_TIME ( #317, #24 ) ;
#257 = LINE ( 'NONE', #164, #190 ) ;
#258 = PLANE ( 'NONE',  #34 ) ;
#259 = CARTESIAN_POINT ( 'NONE',  ( -5.000000000000001800, 5.000000000000000900, -5.000000000000000000 ) ) ;
#260 = UNCERTAINTY_MEASURE_WITH_UNIT (LENGTH_MEASURE( 1.000000000000000100E-005 ), #290, 'distance_accuracy_value', 'NONE');
#261 = CARTESIAN_POINT ( 'NONE',  ( -5.000000000000000000, -4.999999999999999100, 5.000000000000000000 ) ) ;
#262 = CARTESIAN_POINT ( 'NONE',  ( 5.000000000000000000, -4.999999999999999100, 5.000000000000000000 ) ) ;
#263 = DIRECTION ( 'NONE',  ( 0.7071067811865474600, 0.7071067811865475700, -0.0000000000000000000 ) ) ;
#264 = VECTOR ( 'NONE', #187, 1000.000000000000000 ) ;
#265 = CARTESIAN_POINT ( 'NONE',  ( -5.000000000000000000, -4.999999999999999100, -5.000000000000000000 ) ) ;
#266 = ADVANCED_FACE ( 'NONE', ( #194 ), #237, .T. ) ;
#267 = CARTESIAN_POINT ( 'NONE',  ( 5.000000000000000000, -4.999999999999999100, 5.000000000000000000 ) ) ;
#268 = CARTESIAN_POINT ( 'NONE',  ( -5.000000000000001800, 5.000000000000000900, 5.000000000000000000 ) ) ;
#269 = PERSON_AND_ORGANIZATION ( #310, #224 ) ;
#270 = ORIENTED_EDGE ( 'NONE', *, *, #46, .T. ) ;
#271 = APPLICATION_PROTOCOL_DEFINITION ( 'international standard', 'config_control_design', 1994, #59 ) ;
#272 = APPROVAL_ROLE ( '' ) ;
#273 = FACE_OUTER_BOUND ( 'NONE', #166, .T. ) ;
#274 = CC_DESIGN_PERSON_AND_ORGANIZATION_ASSIGNMENT ( #12, #353, ( #202 ) ) ;
#275 = PERSON_AND_ORGANIZATION ( #310, #224 ) ;
#276 = EDGE_CURVE ( 'NONE', #19, #159, #134, .T. ) ;
#277 = LINE ( 'NONE', #48, #210 ) ;
#278 = AXIS2_PLACEMENT_3D ( 'NONE', #267, #213, #21 ) ;
#279 = COORDINATED_UNIVERSAL_TIME_OFFSET ( 5, 0, .BEHIND. ) ;
#280 = DIRECTION ( 'NONE',  ( 1.734723475976807100E-016, -1.000000000000000000, 0.0000000000000000000 ) ) ;
#281 = CARTESIAN_POINT ( 'NONE',  ( 5.000000000000000000, -4.999999999999999100, 5.000000000000000000 ) ) ;
#282 = CARTESIAN_POINT ( 'NONE',  ( 5.000000000000000000, -4.999999999999999100, -5.000000000000000000 ) ) ;
#283 = DIRECTION ( 'NONE',  ( -0.0000000000000000000, 0.0000000000000000000, 1.000000000000000000 ) ) ;
#284 = LINE ( 'NONE', #259, #139 ) ;
#285 = CARTESIAN_POINT ( 'NONE',  ( 0.0000000000000000000, 0.0000000000000000000, 5.000000000000000000 ) ) ;
#286 = CARTESIAN_POINT ( 'NONE',  ( -5.000000000000000000, -4.999999999999999100, 5.000000000000000000 ) ) ;
#287 = SHAPE_DEFINITION_REPRESENTATION ( #220, #221 ) ;
#288 = DIRECTION ( 'NONE',  ( 0.0000000000000000000, -0.0000000000000000000, 1.000000000000000000 ) ) ;
#289 = SECURITY_CLASSIFICATION ( '', '', #217 ) ;
#290 =( LENGTH_UNIT ( ) NAMED_UNIT ( * ) SI_UNIT ( .MILLI., .METRE. ) );
#291 = APPROVAL_ROLE ( '' ) ;
#292 = EDGE_CURVE ( 'NONE', #108, #158, #107, .T. ) ;
#293 = FACE_OUTER_BOUND ( 'NONE', #56, .T. ) ;
#294 = DATE_AND_TIME ( #352, #78 ) ;
#295 = LINE ( 'NONE', #16, #66 ) ;
#296 = CC_DESIGN_PERSON_AND_ORGANIZATION_ASSIGNMENT ( #312, #28, ( #289 ) ) ;
#297 = CARTESIAN_POINT ( 'NONE',  ( 5.000000000000000000, -4.999999999999999100, -5.000000000000000000 ) ) ;
#298 = DIRECTION ( 'NONE',  ( 0.7071067811865475700, -0.7071067811865474600, 0.0000000000000000000 ) ) ;
#299 = PERSON_AND_ORGANIZATION ( #310, #224 ) ;
#300 = LINE ( 'NONE', #326, #246 ) ;
#301 = EDGE_CURVE ( 'NONE', #197, #72, #18, .T. ) ;
#302 = DIRECTION ( 'NONE',  ( -0.7071067811865475700, 0.7071067811865474600, 0.0000000000000000000 ) ) ;
#303 = DIRECTION ( 'NONE',  ( 1.000000000000000000, 0.0000000000000000000, 0.0000000000000000000 ) ) ;
#304 = CARTESIAN_POINT ( 'NONE',  ( -5.000000000000000000, -4.999999999999999100, 5.000000000000000000 ) ) ;
#305 = PLANE ( 'NONE',  #248 ) ;
#306 = DIRECTION ( 'NONE',  ( 1.000000000000000000, 0.0000000000000000000, 0.0000000000000000000 ) ) ;
#307 = AXIS2_PLACEMENT_3D ( 'NONE', #286, #91, #288 ) ;
#308 = DIRECTION ( 'NONE',  ( 0.0000000000000000000, 0.0000000000000000000, -1.000000000000000000 ) ) ;
#309 = ADVANCED_FACE ( 'NONE', ( #7 ), #305, .T. ) ;
#310 = PERSON ( 'UNSPECIFIED', 'UNSPECIFIED', 'UNSPECIFIED', ('UNSPECIFIED'), ('UNSPECIFIED'), ('UNSPECIFIED') ) ;
#311 =( NAMED_UNIT ( * ) SI_UNIT ( $, .STERADIAN. ) SOLID_ANGLE_UNIT ( ) );
#312 = PERSON_AND_ORGANIZATION ( #310, #224 ) ;
#313 = VECTOR ( 'NONE', #249, 1000.000000000000000 ) ;
#314 = DATE_TIME_ROLE ( 'creation_date' ) ;
#315 = VECTOR ( 'NONE', #238, 1000.000000000000000 ) ;
#316 = CC_DESIGN_DATE_AND_TIME_ASSIGNMENT ( #3, #247, ( #289 ) ) ;
#317 = CALENDAR_DATE ( 2017, 13, 7 ) ;
#318 = VECTOR ( 'NONE', #302, 1000.000000000000000 ) ;
#319 = LINE ( 'NONE', #265, #118 ) ;
#320 =( GEOMETRIC_REPRESENTATION_CONTEXT ( 3 ) GLOBAL_UNCERTAINTY_ASSIGNED_CONTEXT ( ( #260 ) ) GLOBAL_UNIT_ASSIGNED_CONTEXT ( ( #290, #131, #311 ) ) REPRESENTATION_CONTEXT ( 'NONE', 'WORKASPACE' ) );
#321 = DATE_AND_TIME ( #35, #127 ) ;
#322 = ADVANCED_FACE ( 'NONE', ( #254 ), #185, .F. ) ;
#323 = ORIENTED_EDGE ( 'NONE', *, *, #37, .T. ) ;
#324 = PLANE ( 'NONE',  #82 ) ;
#325 = DIRECTION ( 'NONE',  ( -0.0000000000000000000, -0.0000000000000000000, -1.000000000000000000 ) ) ;
#326 = CARTESIAN_POINT ( 'NONE',  ( 4.999999999999998200, 5.000000000000000900, 5.000000000000000000 ) ) ;
#327 = CARTESIAN_POINT ( 'NONE',  ( 15.00000000000000000, -4.999999999999999100, 5.000000000000000000 ) ) ;
#328 = PLANE ( 'NONE',  #129 ) ;
#329 = VECTOR ( 'NONE', #330, 1000.000000000000000 ) ;
#330 = DIRECTION ( 'NONE',  ( -0.7071067811865475700, 0.7071067811865474600, 0.0000000000000000000 ) ) ;
#331 = ADVANCED_FACE ( 'NONE', ( #98 ), #349, .F. ) ;
#332 = APPROVAL_DATE_TIME ( #42, #126 ) ;
#333 = CARTESIAN_POINT ( 'NONE',  ( -5.000000000000001800, 5.000000000000000900, -5.000000000000000000 ) ) ;
#334 = APPROVAL ( #60, 'UNSPECIFIED' ) ;
#335 = APPLICATION_PROTOCOL_DEFINITION ( 'international standard', 'config_control_design', 1994, #351 ) ;
#336 = APPROVAL_ROLE ( '' ) ;
#337 = EDGE_CURVE ( 'NONE', #20, #113, #175, .T. ) ;
#338 = LINE ( 'NONE', #304, #49 ) ;
#339 = AXIS2_PLACEMENT_3D ( 'NONE', #268, #215, #22 ) ;
#340 = APPROVAL_PERSON_ORGANIZATION ( #54, #126, #291 ) ;
#341 = VECTOR ( 'NONE', #209, 1000.000000000000000 ) ;
#342 = CC_DESIGN_APPROVAL ( #334, ( #289 ) ) ;
#343 = LINE ( 'NONE', #149, #227 ) ;
#344 = DIRECTION ( 'NONE',  ( -0.0000000000000000000, -0.0000000000000000000, -1.000000000000000000 ) ) ;
#345 = DIRECTION ( 'NONE',  ( -0.0000000000000000000, -0.0000000000000000000, -1.000000000000000000 ) ) ;
#346 = MANIFOLD_SOLID_BREP ( 'Boss-Extrude1', #201 ) ;
#347 = DIRECTION ( 'NONE',  ( 0.0000000000000000000, 0.0000000000000000000, -1.000000000000000000 ) ) ;
#348 = ADVANCED_FACE ( 'NONE', ( #250 ), #160, .F. ) ;
#349 = PLANE ( 'NONE',  #307 ) ;
#350 = DIRECTION ( 'NONE',  ( 0.0000000000000000000, 0.0000000000000000000, 1.000000000000000000 ) ) ;
#351 = APPLICATION_CONTEXT ( 'configuration controlled 3d designs of mechanical parts and assemblies' ) ;
#352 = CALENDAR_DATE ( 2017, 13, 7 ) ;
#353 = PERSON_AND_ORGANIZATION_ROLE ( 'design_supplier' ) ;
#354 = FACE_OUTER_BOUND ( 'NONE', #71, .T. ) ;
ENDSEC;
END-ISO-10303-21;
