ISO-10303-21;
HEADER;
FILE_DESCRIPTION (( 'STEP AP214' ),
    '1' );
FILE_NAME ('4526-E0W.STEP',
    '2009-12-21T17:07:40',
    ( ' ' ),
    ( ' ' ),
    'SwSTEP 2.0',
    'SolidWorks 2009',
    '' );
FILE_SCHEMA (( 'AUTOMOTIVE_DESIGN' ));
ENDSEC;

DATA;
#1 = CIRCLE ( 'NONE', #3, 77.26000000000000500 ) ;
#2 = CARTESIAN_POINT ( 'NONE',  ( 0.0000000000000000000, 0.0000000000000000000, -70.90500000000001500 ) ) ;
#3 = AXIS2_PLACEMENT_3D ( 'NONE', #2, #5, #4 ) ;
#4 = DIRECTION ( 'NONE',  ( 0.0000000000000000000, 0.0000000000000000000, -1.000000000000000000 ) ) ;
#5 = DIRECTION ( 'NONE',  ( 1.000000000000000000, 0.0000000000000000000, 0.0000000000000000000 ) ) ;
#6 = DIRECTION ( 'NONE',  ( 1.000000000000000000, 0.0000000000000000000, 0.0000000000000000000 ) ) ;
#7 = DIRECTION ( 'NONE',  ( -0.0000000000000000000, -0.0000000000000000000, 1.000000000000000000 ) ) ;
#8 = AXIS2_PLACEMENT_3D ( 'NONE', #9, #7, #6 ) ;
#9 = CARTESIAN_POINT ( 'NONE',  ( 0.0000000000000000000, 0.0000000000000000000, 4.308132045400366600 ) ) ;
#10 = CYLINDRICAL_SURFACE ( 'NONE', #8, 37.49999999999999300 ) ;
#11 = LINE ( 'NONE', #14, #13 ) ;
#12 = DIRECTION ( 'NONE',  ( -0.0000000000000000000, -0.0000000000000000000, 1.000000000000000000 ) ) ;
#13 = VECTOR ( 'NONE', #12, 1000.000000000000000 ) ;
#14 = CARTESIAN_POINT ( 'NONE',  ( -37.49999999999999300, 4.592273826833913100E-015, 4.308132045400366600 ) ) ;
#15 = CARTESIAN_POINT ( 'NONE',  ( 37.50000000000000000, 0.0000000000000000000, -3.356072547374963700 ) ) ;
#16 = CARTESIAN_POINT ( 'NONE',  ( -37.50000000000000000, 4.592273826833913900E-015, -3.356072547374963700 ) ) ;
#17 =( NAMED_UNIT ( * ) SI_UNIT ( $, .STERADIAN. ) SOLID_ANGLE_UNIT ( ) );
#18 =( GEOMETRIC_REPRESENTATION_CONTEXT ( 3 ) GLOBAL_UNCERTAINTY_ASSIGNED_CONTEXT ( ( #22 ) ) GLOBAL_UNIT_ASSIGNED_CONTEXT ( ( #20, #19, #24 ) ) REPRESENTATION_CONTEXT ( 'NONE', 'WORKASPACE' ) );
#19 =( NAMED_UNIT ( * ) PLANE_ANGLE_UNIT ( ) SI_UNIT ( $, .RADIAN. ) );
#20 =( LENGTH_UNIT ( ) NAMED_UNIT ( * ) SI_UNIT ( .MILLI., .METRE. ) );
#21 = UNCERTAINTY_MEASURE_WITH_UNIT (LENGTH_MEASURE( 1.000000000000000100E-005 ), #31, 'distance_accuracy_value', 'NONE');
#22 = UNCERTAINTY_MEASURE_WITH_UNIT (LENGTH_MEASURE( 1.000000000000000100E-005 ), #20, 'distance_accuracy_value', 'NONE');
#23 =( NAMED_UNIT ( * ) PLANE_ANGLE_UNIT ( ) SI_UNIT ( $, .RADIAN. ) );
#24 =( NAMED_UNIT ( * ) SI_UNIT ( $, .STERADIAN. ) SOLID_ANGLE_UNIT ( ) );
#25 = DIRECTION ( 'NONE',  ( 1.000000000000000000, 0.0000000000000000000, 0.0000000000000000000 ) ) ;
#26 = CARTESIAN_POINT ( 'NONE',  ( 0.0000000000000000000, 0.0000000000000000000, -3.356072547374963700 ) ) ;
#27 = SURFACE_STYLE_USAGE ( .BOTH. , #30 ) ;
#28 = DIRECTION ( 'NONE',  ( 1.000000000000000000, 0.0000000000000000000, 0.0000000000000000000 ) ) ;
#29 = FILL_AREA_STYLE ('',( #39 ) ) ;
#30 = SURFACE_SIDE_STYLE ('',( #38 ) ) ;
#31 =( LENGTH_UNIT ( ) NAMED_UNIT ( * ) SI_UNIT ( .MILLI., .METRE. ) );
#32 = FACE_OUTER_BOUND ( 'NONE', #222, .T. ) ;
#33 = AXIS2_PLACEMENT_3D ( 'NONE', #26, #45, #25 ) ;
#34 = CIRCLE ( 'NONE', #33, 37.50000000000000000 ) ;
#35 = COLOUR_RGB ( '',0.9568627450980391500, 0.9490196078431372100, 0.9607843137254902200 ) ;
#36 = DIRECTION ( 'NONE',  ( -0.0000000000000000000, -0.0000000000000000000, 1.000000000000000000 ) ) ;
#37 = CARTESIAN_POINT ( 'NONE',  ( 0.0000000000000000000, 0.0000000000000000000, 4.308132045400366600 ) ) ;
#38 = SURFACE_STYLE_FILL_AREA ( #29 ) ;
#39 = FILL_AREA_STYLE_COLOUR ( '', #35 ) ;
#40 = AXIS2_PLACEMENT_3D ( 'NONE', #37, #36, #28 ) ;
#41 = MECHANICAL_DESIGN_GEOMETRIC_PRESENTATION_REPRESENTATION (  '', ( #43 ), #60 ) ;
#42 = PRESENTATION_LAYER_ASSIGNMENT (  '', '', ( #43 ) ) ;
#43 = STYLED_ITEM ( 'NONE', ( #44 ), #223 ) ;
#44 = PRESENTATION_STYLE_ASSIGNMENT (( #27 ) ) ;
#45 = DIRECTION ( 'NONE',  ( -0.0000000000000000000, -0.0000000000000000000, 1.000000000000000000 ) ) ;
#46 = CYLINDRICAL_SURFACE ( 'NONE', #40, 37.49999999999999300 ) ;
#47 = UNCERTAINTY_MEASURE_WITH_UNIT (LENGTH_MEASURE( 1.000000000000000100E-005 ), #73, 'distance_accuracy_value', 'NONE');
#48 = DIRECTION ( 'NONE',  ( -0.0000000000000000000, -0.0000000000000000000, 1.000000000000000000 ) ) ;
#49 = AXIS2_PLACEMENT_3D ( 'NONE', #100, #48, #95 ) ;
#50 = CARTESIAN_POINT ( 'NONE',  ( 0.0000000000000000000, 0.0000000000000000000, -6.354999999999999500 ) ) ;
#51 = AXIS2_PLACEMENT_3D ( 'NONE', #50, #102, #101 ) ;
#52 = COLOUR_RGB ( '',0.9568627450980391500, 0.9490196078431372100, 0.9607843137254902200 ) ;
#53 = DIRECTION ( 'NONE',  ( 1.000000000000000000, 0.0000000000000000000, 0.0000000000000000000 ) ) ;
#54 = DIRECTION ( 'NONE',  ( -0.0000000000000000000, -0.0000000000000000000, 1.000000000000000000 ) ) ;
#55 = CARTESIAN_POINT ( 'NONE',  ( 0.0000000000000000000, 0.0000000000000000000, -3.356072547374963700 ) ) ;
#56 = SPHERICAL_SURFACE ( 'NONE', #79, 77.26000000000000500 ) ;
#57 = CIRCLE ( 'NONE', #49, 37.50000000000000000 ) ;
#58 = CIRCLE ( 'NONE', #51, 37.49999999999999300 ) ;
#59 = DIRECTION ( 'NONE',  ( 0.0000000000000000000, 1.000000000000000000, 0.0000000000000000000 ) ) ;
#60 =( GEOMETRIC_REPRESENTATION_CONTEXT ( 3 ) GLOBAL_UNCERTAINTY_ASSIGNED_CONTEXT ( ( #21 ) ) GLOBAL_UNIT_ASSIGNED_CONTEXT ( ( #31, #23, #17 ) ) REPRESENTATION_CONTEXT ( 'NONE', 'WORKASPACE' ) );
#61 = MECHANICAL_DESIGN_GEOMETRIC_PRESENTATION_REPRESENTATION (  '', ( #63 ), #69 ) ;
#62 = PRESENTATION_LAYER_ASSIGNMENT (  '', '', ( #63 ) ) ;
#63 = STYLED_ITEM ( 'NONE', ( #64 ), #235 ) ;
#64 = PRESENTATION_STYLE_ASSIGNMENT (( #74 ) ) ;
#65 = DIRECTION ( 'NONE',  ( 1.000000000000000000, 0.0000000000000000000, 0.0000000000000000000 ) ) ;
#66 = AXIS2_PLACEMENT_3D ( 'NONE', #55, #54, #53 ) ;
#67 = CARTESIAN_POINT ( 'NONE',  ( 0.0000000000000000000, 2.334789122574429000E-015, -6.354999999999999500 ) ) ;
#68 = MECHANICAL_DESIGN_GEOMETRIC_PRESENTATION_REPRESENTATION (  '', ( #92 ), #82 ) ;
#69 =( GEOMETRIC_REPRESENTATION_CONTEXT ( 3 ) GLOBAL_UNCERTAINTY_ASSIGNED_CONTEXT ( ( #47 ) ) GLOBAL_UNIT_ASSIGNED_CONTEXT ( ( #73, #96, #72 ) ) REPRESENTATION_CONTEXT ( 'NONE', 'WORKASPACE' ) );
#70 = CIRCLE ( 'NONE', #66, 37.50000000000000000 ) ;
#71 = FILL_AREA_STYLE_COLOUR ( '', #52 ) ;
#72 =( NAMED_UNIT ( * ) SI_UNIT ( $, .STERADIAN. ) SOLID_ANGLE_UNIT ( ) );
#73 =( LENGTH_UNIT ( ) NAMED_UNIT ( * ) SI_UNIT ( .MILLI., .METRE. ) );
#74 = SURFACE_STYLE_USAGE ( .BOTH. , #75 ) ;
#75 = SURFACE_SIDE_STYLE ('',( #76 ) ) ;
#76 = SURFACE_STYLE_FILL_AREA ( #77 ) ;
#77 = FILL_AREA_STYLE ('',( #85 ) ) ;
#78 = AXIS2_PLACEMENT_3D ( 'NONE', #67, #93, #65 ) ;
#79 = AXIS2_PLACEMENT_3D ( 'NONE', #91, #83, #59 ) ;
#80 =( NAMED_UNIT ( * ) PLANE_ANGLE_UNIT ( ) SI_UNIT ( $, .RADIAN. ) );
#81 = SURFACE_SIDE_STYLE ('',( #89 ) ) ;
#82 =( GEOMETRIC_REPRESENTATION_CONTEXT ( 3 ) GLOBAL_UNCERTAINTY_ASSIGNED_CONTEXT ( ( #98 ) ) GLOBAL_UNIT_ASSIGNED_CONTEXT ( ( #90, #80, #103 ) ) REPRESENTATION_CONTEXT ( 'NONE', 'WORKASPACE' ) );
#83 = DIRECTION ( 'NONE',  ( -1.000000000000000000, 0.0000000000000000000, 0.0000000000000000000 ) ) ;
#84 = PRESENTATION_STYLE_ASSIGNMENT (( #88 ) ) ;
#85 = FILL_AREA_STYLE_COLOUR ( '', #86 ) ;
#86 = COLOUR_RGB ( '',0.7960784313725489700, 0.8235294117647058400, 0.9372549019607843100 ) ;
#87 = CARTESIAN_POINT ( 'NONE',  ( 0.0000000000000000000, 37.50000000000000700, -3.356072547374958000 ) ) ;
#88 = SURFACE_STYLE_USAGE ( .BOTH. , #81 ) ;
#89 = SURFACE_STYLE_FILL_AREA ( #94 ) ;
#90 =( LENGTH_UNIT ( ) NAMED_UNIT ( * ) SI_UNIT ( .MILLI., .METRE. ) );
#91 = CARTESIAN_POINT ( 'NONE',  ( 0.0000000000000000000, 0.0000000000000000000, -70.90500000000001500 ) ) ;
#92 = STYLED_ITEM ( 'NONE', ( #84 ), #224 ) ;
#93 = DIRECTION ( 'NONE',  ( 0.0000000000000000000, -0.0000000000000000000, 1.000000000000000000 ) ) ;
#94 = FILL_AREA_STYLE ('',( #71 ) ) ;
#95 = DIRECTION ( 'NONE',  ( 1.000000000000000000, 0.0000000000000000000, 0.0000000000000000000 ) ) ;
#96 =( NAMED_UNIT ( * ) PLANE_ANGLE_UNIT ( ) SI_UNIT ( $, .RADIAN. ) );
#97 = PLANE ( 'NONE',  #78 ) ;
#98 = UNCERTAINTY_MEASURE_WITH_UNIT (LENGTH_MEASURE( 1.000000000000000100E-005 ), #90, 'distance_accuracy_value', 'NONE');
#99 = PRESENTATION_LAYER_ASSIGNMENT (  '', '', ( #92 ) ) ;
#100 = CARTESIAN_POINT ( 'NONE',  ( 0.0000000000000000000, 0.0000000000000000000, -3.356072547374963700 ) ) ;
#101 = DIRECTION ( 'NONE',  ( 1.000000000000000000, 0.0000000000000000000, 0.0000000000000000000 ) ) ;
#102 = DIRECTION ( 'NONE',  ( -0.0000000000000000000, -0.0000000000000000000, 1.000000000000000000 ) ) ;
#103 =( NAMED_UNIT ( * ) SI_UNIT ( $, .STERADIAN. ) SOLID_ANGLE_UNIT ( ) );
#104 = FACE_OUTER_BOUND ( 'NONE', #215, .T. ) ;
#105 = CARTESIAN_POINT ( 'NONE',  ( 0.0000000000000000000, 0.0000000000000000000, -6.354999999999999500 ) ) ;
#106 = CARTESIAN_POINT ( 'NONE',  ( 0.0000000000000000000, 0.0000000000000000000, -3.356072547374963700 ) ) ;
#107 = CARTESIAN_POINT ( 'NONE',  ( 0.0000000000000000000, 4.730654344815844000E-015, 6.354999999999999500 ) ) ;
#108 = DIRECTION ( 'NONE',  ( -0.0000000000000000000, -0.0000000000000000000, 1.000000000000000000 ) ) ;
#109 = CIRCLE ( 'NONE', #120, 37.49999999999999300 ) ;
#110 = AXIS2_PLACEMENT_3D ( 'NONE', #118, #121, #111 ) ;
#111 = DIRECTION ( 'NONE',  ( -1.224606353822377300E-016, -1.000000000000000000, 0.0000000000000000000 ) ) ;
#112 = CARTESIAN_POINT ( 'NONE',  ( -37.49999999999999300, 4.592273826833913100E-015, -6.354999999999999500 ) ) ;
#113 = AXIS2_PLACEMENT_3D ( 'NONE', #106, #125, #136 ) ;
#114 = CIRCLE ( 'NONE', #113, 37.50000000000000000 ) ;
#115 =( GEOMETRIC_REPRESENTATION_CONTEXT ( 3 ) GLOBAL_UNCERTAINTY_ASSIGNED_CONTEXT ( ( #124 ) ) GLOBAL_UNIT_ASSIGNED_CONTEXT ( ( #134, #132, #122 ) ) REPRESENTATION_CONTEXT ( 'NONE', 'WORKASPACE' ) );
#116 = CARTESIAN_POINT ( 'NONE',  ( 37.49999999999999300, 0.0000000000000000000, -6.354999999999999500 ) ) ;
#117 = DIRECTION ( 'NONE',  ( 1.000000000000000000, 0.0000000000000000000, 0.0000000000000000000 ) ) ;
#118 = CARTESIAN_POINT ( 'NONE',  ( 0.0000000000000000000, 0.0000000000000000000, -70.90500000000001500 ) ) ;
#119 = CIRCLE ( 'NONE', #110, 77.26000000000000500 ) ;
#120 = AXIS2_PLACEMENT_3D ( 'NONE', #105, #108, #117 ) ;
#121 = DIRECTION ( 'NONE',  ( -1.000000000000000000, 1.224606353822377300E-016, 0.0000000000000000000 ) ) ;
#122 =( NAMED_UNIT ( * ) SI_UNIT ( $, .STERADIAN. ) SOLID_ANGLE_UNIT ( ) );
#123 = PRESENTATION_STYLE_ASSIGNMENT (( #137 ) ) ;
#124 = UNCERTAINTY_MEASURE_WITH_UNIT (LENGTH_MEASURE( 1.000000000000000100E-005 ), #134, 'distance_accuracy_value', 'NONE');
#125 = DIRECTION ( 'NONE',  ( -0.0000000000000000000, -0.0000000000000000000, 1.000000000000000000 ) ) ;
#126 = FACE_OUTER_BOUND ( 'NONE', #199, .T. ) ;
#127 = SURFACE_SIDE_STYLE ('',( #130 ) ) ;
#128 = COLOUR_RGB ( '',0.9568627450980391500, 0.9490196078431372100, 0.9607843137254902200 ) ;
#129 = FILL_AREA_STYLE ('',( #131 ) ) ;
#130 = SURFACE_STYLE_FILL_AREA ( #129 ) ;
#131 = FILL_AREA_STYLE_COLOUR ( '', #128 ) ;
#132 =( NAMED_UNIT ( * ) PLANE_ANGLE_UNIT ( ) SI_UNIT ( $, .RADIAN. ) );
#133 = STYLED_ITEM ( 'NONE', ( #123 ), #243 ) ;
#134 =( LENGTH_UNIT ( ) NAMED_UNIT ( * ) SI_UNIT ( .MILLI., .METRE. ) );
#135 = MECHANICAL_DESIGN_GEOMETRIC_PRESENTATION_REPRESENTATION (  '', ( #133 ), #115 ) ;
#136 = DIRECTION ( 'NONE',  ( 1.000000000000000000, 0.0000000000000000000, 0.0000000000000000000 ) ) ;
#137 = SURFACE_STYLE_USAGE ( .BOTH. , #127 ) ;
#138 = PRESENTATION_LAYER_ASSIGNMENT (  '', '', ( #133 ) ) ;
#139 = DIRECTION ( 'NONE',  ( -1.000000000000000000, 0.0000000000000000000, 0.0000000000000000000 ) ) ;
#140 = CARTESIAN_POINT ( 'NONE',  ( 0.0000000000000000000, 0.0000000000000000000, -70.90500000000001500 ) ) ;
#141 = AXIS2_PLACEMENT_3D ( 'NONE', #140, #139, #143 ) ;
#142 = SPHERICAL_SURFACE ( 'NONE', #141, 77.26000000000000500 ) ;
#143 = DIRECTION ( 'NONE',  ( 0.0000000000000000000, 1.000000000000000000, 0.0000000000000000000 ) ) ;
#144 = UNCERTAINTY_MEASURE_WITH_UNIT (LENGTH_MEASURE( 1.000000000000000100E-005 ), #155, 'distance_accuracy_value', 'NONE');
#145 =( NAMED_UNIT ( * ) SI_UNIT ( $, .STERADIAN. ) SOLID_ANGLE_UNIT ( ) );
#146 = CARTESIAN_POINT ( 'NONE',  ( 0.0000000000000000000, 0.0000000000000000000, 0.0000000000000000000 ) ) ;
#147 = DIRECTION ( 'NONE',  ( -0.0000000000000000000, -0.0000000000000000000, 1.000000000000000000 ) ) ;
#148 = VECTOR ( 'NONE', #147, 1000.000000000000000 ) ;
#149 = CARTESIAN_POINT ( 'NONE',  ( 37.49999999999999300, 0.0000000000000000000, 4.308132045400366600 ) ) ;
#150 = UNCERTAINTY_MEASURE_WITH_UNIT (LENGTH_MEASURE( 1.000000000000000100E-005 ), #152, 'distance_accuracy_value', 'NONE');
#151 =( NAMED_UNIT ( * ) SI_UNIT ( $, .STERADIAN. ) SOLID_ANGLE_UNIT ( ) );
#152 =( LENGTH_UNIT ( ) NAMED_UNIT ( * ) SI_UNIT ( .MILLI., .METRE. ) );
#153 = DIRECTION ( 'NONE',  ( 1.000000000000000000, 0.0000000000000000000, 0.0000000000000000000 ) ) ;
#154 = AXIS2_PLACEMENT_3D ( 'NONE', #146, #172, #153 ) ;
#155 =( LENGTH_UNIT ( ) NAMED_UNIT ( * ) SI_UNIT ( .MILLI., .METRE. ) );
#156 = MECHANICAL_DESIGN_GEOMETRIC_PRESENTATION_REPRESENTATION (  '', ( #158 ), #168 ) ;
#157 = PRESENTATION_LAYER_ASSIGNMENT (  '', '', ( #158 ) ) ;
#158 = STYLED_ITEM ( 'NONE', ( #159 ), #171 ) ;
#159 = PRESENTATION_STYLE_ASSIGNMENT (( #162 ) ) ;
#160 =( GEOMETRIC_REPRESENTATION_CONTEXT ( 3 ) GLOBAL_UNCERTAINTY_ASSIGNED_CONTEXT ( ( #150 ) ) GLOBAL_UNIT_ASSIGNED_CONTEXT ( ( #152, #169, #151 ) ) REPRESENTATION_CONTEXT ( 'NONE', 'WORKASPACE' ) );
#161 =( NAMED_UNIT ( * ) PLANE_ANGLE_UNIT ( ) SI_UNIT ( $, .RADIAN. ) );
#162 = SURFACE_STYLE_USAGE ( .BOTH. , #163 ) ;
#163 = SURFACE_SIDE_STYLE ('',( #164 ) ) ;
#164 = SURFACE_STYLE_FILL_AREA ( #165 ) ;
#165 = FILL_AREA_STYLE ('',( #166 ) ) ;
#166 = FILL_AREA_STYLE_COLOUR ( '', #167 ) ;
#167 = COLOUR_RGB ( '',0.7960784313725489700, 0.8235294117647058400, 0.9372549019607843100 ) ;
#168 =( GEOMETRIC_REPRESENTATION_CONTEXT ( 3 ) GLOBAL_UNCERTAINTY_ASSIGNED_CONTEXT ( ( #144 ) ) GLOBAL_UNIT_ASSIGNED_CONTEXT ( ( #155, #161, #145 ) ) REPRESENTATION_CONTEXT ( 'NONE', 'WORKASPACE' ) );
#169 =( NAMED_UNIT ( * ) PLANE_ANGLE_UNIT ( ) SI_UNIT ( $, .RADIAN. ) );
#170 = LINE ( 'NONE', #149, #148 ) ;
#171 = ADVANCED_BREP_SHAPE_REPRESENTATION ( '4526-E0W', ( #235, #154 ), #160 ) ;
#172 = DIRECTION ( 'NONE',  ( 0.0000000000000000000, 0.0000000000000000000, 1.000000000000000000 ) ) ;
#173 = PRODUCT ( '4526-E0W', '4526-E0W', '', ( #174 ) ) ;
#174 = PRODUCT_CONTEXT ( 'NONE', #178, 'mechanical' ) ;
#175 = PRODUCT_DEFINITION_SHAPE ( 'NONE', 'NONE',  #181 ) ;
#176 = PRODUCT_RELATED_PRODUCT_CATEGORY ( 'part', '', ( #173 ) ) ;
#177 = SHAPE_DEFINITION_REPRESENTATION ( #175, #171 ) ;
#178 = APPLICATION_CONTEXT ( 'automotive_design' ) ;
#179 = APPLICATION_PROTOCOL_DEFINITION ( 'draft international standard', 'automotive_design', 1998, #178 ) ;
#180 = PRODUCT_DEFINITION_FORMATION_WITH_SPECIFIED_SOURCE ( 'ANY', '', #173, .NOT_KNOWN. ) ;
#181 = PRODUCT_DEFINITION ( 'UNKNOWN', '', #180, #182 ) ;
#182 = PRODUCT_DEFINITION_CONTEXT ( 'detailed design', #184, 'design' ) ;
#183 = APPLICATION_PROTOCOL_DEFINITION ( 'draft international standard', 'automotive_design', 1998, #184 ) ;
#184 = APPLICATION_CONTEXT ( 'automotive_design' ) ;
#185 = MECHANICAL_DESIGN_GEOMETRIC_PRESENTATION_REPRESENTATION (  '', ( #187 ), #18 ) ;
#186 = PRESENTATION_LAYER_ASSIGNMENT (  '', '', ( #187 ) ) ;
#187 = STYLED_ITEM ( 'NONE', ( #188 ), #218 ) ;
#188 = PRESENTATION_STYLE_ASSIGNMENT (( #189 ) ) ;
#189 = SURFACE_STYLE_USAGE ( .BOTH. , #190 ) ;
#190 = SURFACE_SIDE_STYLE ('',( #191 ) ) ;
#191 = SURFACE_STYLE_FILL_AREA ( #192 ) ;
#192 = FILL_AREA_STYLE ('',( #193 ) ) ;
#193 = FILL_AREA_STYLE_COLOUR ( '', #194 ) ;
#194 = COLOUR_RGB ( '',0.9568627450980391500, 0.9490196078431372100, 0.9607843137254902200 ) ;
#195 = FACE_OUTER_BOUND ( 'NONE', #201, .T. ) ;
#196 = CARTESIAN_POINT ( 'NONE',  ( -4.592273826833914700E-015, -37.50000000000000700, -3.356072547374958000 ) ) ;
#197 = ADVANCED_FACE ( 'NONE', ( #254 ), #10, .T. ) ;
#198 = ORIENTED_EDGE ( 'NONE', *, *, #233, .F. ) ;
#199 = EDGE_LOOP ( 'NONE', ( #244, #214, #213, #211 ) ) ;
#200 = ORIENTED_EDGE ( 'NONE', *, *, #245, .F. ) ;
#201 = EDGE_LOOP ( 'NONE', ( #226, #230, #209, #216, #227 ) ) ;
#202 = EDGE_CURVE ( 'NONE', #234, #241, #1, .T. ) ;
#203 = VERTEX_POINT ( 'NONE', #15 ) ;
#204 = VERTEX_POINT ( 'NONE', #16 ) ;
#205 = EDGE_LOOP ( 'NONE', ( #206, #236, #198, #231, #200 ) ) ;
#206 = ORIENTED_EDGE ( 'NONE', *, *, #237, .T. ) ;
#207 = EDGE_CURVE ( 'NONE', #238, #204, #11, .T. ) ;
#208 = CLOSED_SHELL ( 'NONE', ( #197, #243, #223, #218, #224 ) ) ;
#209 = ORIENTED_EDGE ( 'NONE', *, *, #245, .T. ) ;
#210 = ORIENTED_EDGE ( 'NONE', *, *, #240, .F. ) ;
#211 = ORIENTED_EDGE ( 'NONE', *, *, #202, .F. ) ;
#212 = VERTEX_POINT ( 'NONE', #196 ) ;
#213 = ORIENTED_EDGE ( 'NONE', *, *, #240, .T. ) ;
#214 = ORIENTED_EDGE ( 'NONE', *, *, #242, .T. ) ;
#215 = EDGE_LOOP ( 'NONE', ( #225, #228 ) ) ;
#216 = ORIENTED_EDGE ( 'NONE', *, *, #219, .F. ) ;
#217 = ORIENTED_EDGE ( 'NONE', *, *, #202, .T. ) ;
#218 = ADVANCED_FACE ( 'NONE', ( #195 ), #46, .T. ) ;
#219 = EDGE_CURVE ( 'NONE', #212, #203, #34, .T. ) ;
#220 = ORIENTED_EDGE ( 'NONE', *, *, #232, .T. ) ;
#221 = ORIENTED_EDGE ( 'NONE', *, *, #219, .T. ) ;
#222 = EDGE_LOOP ( 'NONE', ( #210, #221, #220, #217 ) ) ;
#223 = ADVANCED_FACE ( 'NONE', ( #32 ), #56, .T. ) ;
#224 = ADVANCED_FACE ( 'NONE', ( #104 ), #97, .F. ) ;
#225 = ORIENTED_EDGE ( 'NONE', *, *, #237, .F. ) ;
#226 = ORIENTED_EDGE ( 'NONE', *, *, #207, .F. ) ;
#227 = ORIENTED_EDGE ( 'NONE', *, *, #242, .F. ) ;
#228 = ORIENTED_EDGE ( 'NONE', *, *, #229, .F. ) ;
#229 = EDGE_CURVE ( 'NONE', #238, #239, #58, .T. ) ;
#230 = ORIENTED_EDGE ( 'NONE', *, *, #229, .T. ) ;
#231 = ORIENTED_EDGE ( 'NONE', *, *, #232, .F. ) ;
#232 = EDGE_CURVE ( 'NONE', #203, #234, #57, .T. ) ;
#233 = EDGE_CURVE ( 'NONE', #234, #204, #70, .T. ) ;
#234 = VERTEX_POINT ( 'NONE', #87 ) ;
#235 = MANIFOLD_SOLID_BREP ( 'NONE', #208 ) ;
#236 = ORIENTED_EDGE ( 'NONE', *, *, #207, .T. ) ;
#237 = EDGE_CURVE ( 'NONE', #239, #238, #109, .T. ) ;
#238 = VERTEX_POINT ( 'NONE', #112 ) ;
#239 = VERTEX_POINT ( 'NONE', #116 ) ;
#240 = EDGE_CURVE ( 'NONE', #212, #241, #119, .T. ) ;
#241 = VERTEX_POINT ( 'NONE', #107 ) ;
#242 = EDGE_CURVE ( 'NONE', #204, #212, #114, .T. ) ;
#243 = ADVANCED_FACE ( 'NONE', ( #126 ), #142, .T. ) ;
#244 = ORIENTED_EDGE ( 'NONE', *, *, #233, .T. ) ;
#245 = EDGE_CURVE ( 'NONE', #239, #203, #170, .T. ) ;
#246 = PRESENTATION_LAYER_ASSIGNMENT (  '', '', ( #247 ) ) ;
#247 = STYLED_ITEM ( 'NONE', ( #248 ), #197 ) ;
#248 = PRESENTATION_STYLE_ASSIGNMENT (( #249 ) ) ;
#249 = SURFACE_STYLE_USAGE ( .BOTH. , #250 ) ;
#250 = SURFACE_SIDE_STYLE ('',( #251 ) ) ;
#251 = SURFACE_STYLE_FILL_AREA ( #252 ) ;
#252 = FILL_AREA_STYLE ('',( #261 ) ) ;
#253 = COLOUR_RGB ( '',0.9568627450980391500, 0.9490196078431372100, 0.9607843137254902200 ) ;
#254 = FACE_OUTER_BOUND ( 'NONE', #205, .T. ) ;
#255 =( GEOMETRIC_REPRESENTATION_CONTEXT ( 3 ) GLOBAL_UNCERTAINTY_ASSIGNED_CONTEXT ( ( #256 ) ) GLOBAL_UNIT_ASSIGNED_CONTEXT ( ( #259, #258, #257 ) ) REPRESENTATION_CONTEXT ( 'NONE', 'WORKASPACE' ) );
#256 = UNCERTAINTY_MEASURE_WITH_UNIT (LENGTH_MEASURE( 1.000000000000000100E-005 ), #259, 'distance_accuracy_value', 'NONE');
#257 =( NAMED_UNIT ( * ) SI_UNIT ( $, .STERADIAN. ) SOLID_ANGLE_UNIT ( ) );
#258 =( NAMED_UNIT ( * ) PLANE_ANGLE_UNIT ( ) SI_UNIT ( $, .RADIAN. ) );
#259 =( LENGTH_UNIT ( ) NAMED_UNIT ( * ) SI_UNIT ( .MILLI., .METRE. ) );
#260 = MECHANICAL_DESIGN_GEOMETRIC_PRESENTATION_REPRESENTATION (  '', ( #247 ), #255 ) ;
#261 = FILL_AREA_STYLE_COLOUR ( '', #253 ) ;
ENDSEC;
END-ISO-10303-21;
