ISO-10303-21;
HEADER;
FILE_DESCRIPTION (( 'STEP AP203' ),
    '1' );
FILE_NAME ('Web Model 45569_36982.step',
    '2019-01-07T15:34:46',
    ( '' ),
    ( '' ),
    'SwSTEP 2.0',
    'SolidWorks 2016',
    '' );
FILE_SCHEMA (( 'CONFIG_CONTROL_DESIGN' ));
ENDSEC;

DATA;
#1 = ADVANCED_BREP_SHAPE_REPRESENTATION ( 'Web Model 45569_36982', ( #94, #106 ), #80 ) ;
#2 = CIRCLE ( 'NONE', #164, 15.00000000000000000 ) ;
#3 = VERTEX_POINT ( 'NONE', #7 ) ;
#4 = CARTESIAN_POINT ( 'NONE',  ( -15.00000000000000000, 0.0000000000000000000, 1.500000000000000000 ) ) ;
#5 = ORIENTED_EDGE ( 'NONE', *, *, #134, .T. ) ;
#6 = DIRECTION ( 'NONE',  ( 1.000000000000000000, 0.0000000000000000000, 0.0000000000000000000 ) ) ;
#7 = CARTESIAN_POINT ( 'NONE',  ( -15.00000000000000000, 0.0000000000000000000, -1.500000000000000000 ) ) ;
#8 = DATE_TIME_ROLE ( 'creation_date' ) ;
#9 =( LENGTH_UNIT ( ) NAMED_UNIT ( * ) SI_UNIT ( .MILLI., .METRE. ) );
#10 = PERSON_AND_ORGANIZATION_ROLE ( 'creator' ) ;
#11 = ADVANCED_FACE ( 'NONE', ( #108 ), #19, .T. ) ;
#12 = DESIGN_CONTEXT ( 'detailed design', #41, 'design' ) ;
#13 = EDGE_LOOP ( 'NONE', ( #174, #148 ) ) ;
#14 = AXIS2_PLACEMENT_3D ( 'NONE', #152, #50, #166 ) ;
#15 = APPROVAL_DATE_TIME ( #91, #119 ) ;
#16 = PRODUCT_DEFINITION_FORMATION_WITH_SPECIFIED_SOURCE ( 'ANY', '', #46, .NOT_KNOWN. ) ;
#17 = COORDINATED_UNIVERSAL_TIME_OFFSET ( 5, 0, .BEHIND. ) ;
#18 = DIRECTION ( 'NONE',  ( -1.000000000000000000, 0.0000000000000000000, 0.0000000000000000000 ) ) ;
#19 = PLANE ( 'NONE',  #115 ) ;
#20 = AXIS2_PLACEMENT_3D ( 'NONE', #98, #48, #6 ) ;
#21 = CARTESIAN_POINT ( 'NONE',  ( 0.0000000000000000000, 0.0000000000000000000, 1.500000000000000000 ) ) ;
#22 = DATE_AND_TIME ( #150, #167 ) ;
#23 = FACE_OUTER_BOUND ( 'NONE', #30, .T. ) ;
#24 = DIRECTION ( 'NONE',  ( 0.0000000000000000000, 0.0000000000000000000, 1.000000000000000000 ) ) ;
#25 = APPLICATION_PROTOCOL_DEFINITION ( 'international standard', 'config_control_design', 1994, #170 ) ;
#26 = EDGE_LOOP ( 'NONE', ( #95, #111, #135, #151 ) ) ;
#27 = APPROVAL_DATE_TIME ( #61, #109 ) ;
#28 = AXIS2_PLACEMENT_3D ( 'NONE', #77, #24, #33 ) ;
#29 = COORDINATED_UNIVERSAL_TIME_OFFSET ( 5, 0, .BEHIND. ) ;
#30 = EDGE_LOOP ( 'NONE', ( #72, #52, #5, #96 ) ) ;
#31 = CC_DESIGN_APPROVAL ( #109, ( #161 ) ) ;
#32 = APPROVAL_PERSON_ORGANIZATION ( #104, #109, #156 ) ;
#33 = DIRECTION ( 'NONE',  ( 1.000000000000000000, 0.0000000000000000000, 0.0000000000000000000 ) ) ;
#34 = PLANE ( 'NONE',  #14 ) ;
#35 = VECTOR ( 'NONE', #122, 1000.000000000000000 ) ;
#36 = APPROVAL_STATUS ( 'not_yet_approved' ) ;
#37 = APPROVAL ( #36, 'UNSPECIFIED' ) ;
#38 = DIRECTION ( 'NONE',  ( -0.0000000000000000000, -0.0000000000000000000, -1.000000000000000000 ) ) ;
#39 = PERSON_AND_ORGANIZATION_ROLE ( 'classification_officer' ) ;
#40 = VERTEX_POINT ( 'NONE', #124 ) ;
#41 = APPLICATION_CONTEXT ( 'configuration controlled 3d designs of mechanical parts and assemblies' ) ;
#42 = LOCAL_TIME ( 10, 34, 46.00000000000000000, #55 ) ;
#43 = AXIS2_PLACEMENT_3D ( 'NONE', #158, #51, #63 ) ;
#44 = VERTEX_POINT ( 'NONE', #73 ) ;
#45 = LINE ( 'NONE', #4, #35 ) ;
#46 = PRODUCT ( 'Web Model 45569_36982', 'Web Model 45569_36982', '', ( #116 ) ) ;
#47 = FACE_OUTER_BOUND ( 'NONE', #26, .T. ) ;
#48 = DIRECTION ( 'NONE',  ( 0.0000000000000000000, 0.0000000000000000000, 1.000000000000000000 ) ) ;
#49 = AXIS2_PLACEMENT_3D ( 'NONE', #154, #38, #18 ) ;
#50 = DIRECTION ( 'NONE',  ( 0.0000000000000000000, 0.0000000000000000000, 1.000000000000000000 ) ) ;
#51 = DIRECTION ( 'NONE',  ( 0.0000000000000000000, 0.0000000000000000000, 1.000000000000000000 ) ) ;
#52 = ORIENTED_EDGE ( 'NONE', *, *, #159, .F. ) ;
#53 = CC_DESIGN_DATE_AND_TIME_ASSIGNMENT ( #84, #8, ( #161 ) ) ;
#54 = APPROVAL_STATUS ( 'not_yet_approved' ) ;
#55 = COORDINATED_UNIVERSAL_TIME_OFFSET ( 5, 0, .BEHIND. ) ;
#56 = PERSON_AND_ORGANIZATION ( #105, #82 ) ;
#57 = CC_DESIGN_PERSON_AND_ORGANIZATION_ASSIGNMENT ( #125, #169, ( #16 ) ) ;
#58 = PRODUCT_RELATED_PRODUCT_CATEGORY ( 'detail', '', ( #46 ) ) ;
#59 = CALENDAR_DATE ( 2019, 7, 1 ) ;
#60 = EDGE_CURVE ( 'NONE', #3, #145, #2, .T. ) ;
#61 = DATE_AND_TIME ( #71, #131 ) ;
#62 = APPLICATION_PROTOCOL_DEFINITION ( 'international standard', 'config_control_design', 1994, #41 ) ;
#63 = DIRECTION ( 'NONE',  ( 1.000000000000000000, 0.0000000000000000000, 0.0000000000000000000 ) ) ;
#64 = CYLINDRICAL_SURFACE ( 'NONE', #49, 15.00000000000000000 ) ;
#65 = APPROVAL_ROLE ( '' ) ;
#66 = CC_DESIGN_PERSON_AND_ORGANIZATION_ASSIGNMENT ( #56, #39, ( #101 ) ) ;
#67 = CALENDAR_DATE ( 2019, 7, 1 ) ;
#68 = COORDINATED_UNIVERSAL_TIME_OFFSET ( 5, 0, .BEHIND. ) ;
#69 = LINE ( 'NONE', #138, #162 ) ;
#70 = PERSON_AND_ORGANIZATION ( #105, #82 ) ;
#71 = CALENDAR_DATE ( 2019, 7, 1 ) ;
#72 = ORIENTED_EDGE ( 'NONE', *, *, #114, .F. ) ;
#73 = CARTESIAN_POINT ( 'NONE',  ( 15.00000000000000000, 1.836970198721029600E-015, 1.500000000000000000 ) ) ;
#74 = CARTESIAN_POINT ( 'NONE',  ( 0.0000000000000000000, 0.0000000000000000000, 1.500000000000000000 ) ) ;
#75 = AXIS2_PLACEMENT_3D ( 'NONE', #74, #155, #141 ) ;
#76 = DIRECTION ( 'NONE',  ( -0.0000000000000000000, -0.0000000000000000000, -1.000000000000000000 ) ) ;
#77 = CARTESIAN_POINT ( 'NONE',  ( 0.0000000000000000000, 0.0000000000000000000, -1.500000000000000000 ) ) ;
#78 = PERSON_AND_ORGANIZATION_ROLE ( 'design_owner' ) ;
#79 =( NAMED_UNIT ( * ) PLANE_ANGLE_UNIT ( ) SI_UNIT ( $, .RADIAN. ) );
#80 =( GEOMETRIC_REPRESENTATION_CONTEXT ( 3 ) GLOBAL_UNCERTAINTY_ASSIGNED_CONTEXT ( ( #144 ) ) GLOBAL_UNIT_ASSIGNED_CONTEXT ( ( #9, #79, #99 ) ) REPRESENTATION_CONTEXT ( 'NONE', 'WORKASPACE' ) );
#81 = CIRCLE ( 'NONE', #20, 15.00000000000000000 ) ;
#82 = ORGANIZATION ( 'UNSPECIFIED', 'UNSPECIFIED', '' ) ;
#83 = CARTESIAN_POINT ( 'NONE',  ( 15.00000000000000000, 1.836970198721029600E-015, -1.500000000000000000 ) ) ;
#84 = DATE_AND_TIME ( #59, #93 ) ;
#85 = DIRECTION ( 'NONE',  ( 1.000000000000000000, 0.0000000000000000000, -0.0000000000000000000 ) ) ;
#86 = DIRECTION ( 'NONE',  ( 0.0000000000000000000, 0.0000000000000000000, 1.000000000000000000 ) ) ;
#87 = ORIENTED_EDGE ( 'NONE', *, *, #113, .T. ) ;
#88 = DIRECTION ( 'NONE',  ( 0.0000000000000000000, 0.0000000000000000000, 1.000000000000000000 ) ) ;
#89 = APPROVAL_STATUS ( 'not_yet_approved' ) ;
#90 = DATE_AND_TIME ( #103, #147 ) ;
#91 = DATE_AND_TIME ( #67, #42 ) ;
#92 = CIRCLE ( 'NONE', #43, 15.00000000000000000 ) ;
#93 = LOCAL_TIME ( 10, 34, 46.00000000000000000, #128 ) ;
#94 = MANIFOLD_SOLID_BREP ( 'Boss-Extrude1', #126 ) ;
#95 = ORIENTED_EDGE ( 'NONE', *, *, #113, .F. ) ;
#96 = ORIENTED_EDGE ( 'NONE', *, *, #60, .T. ) ;
#97 = DIRECTION ( 'NONE',  ( 1.000000000000000000, 0.0000000000000000000, 0.0000000000000000000 ) ) ;
#98 = CARTESIAN_POINT ( 'NONE',  ( 0.0000000000000000000, 0.0000000000000000000, 1.500000000000000000 ) ) ;
#99 =( NAMED_UNIT ( * ) SI_UNIT ( $, .STERADIAN. ) SOLID_ANGLE_UNIT ( ) );
#100 = PERSON_AND_ORGANIZATION ( #105, #82 ) ;
#101 = SECURITY_CLASSIFICATION ( '', '', #173 ) ;
#102 = CC_DESIGN_PERSON_AND_ORGANIZATION_ASSIGNMENT ( #153, #171, ( #16 ) ) ;
#103 = CALENDAR_DATE ( 2019, 7, 1 ) ;
#104 = PERSON_AND_ORGANIZATION ( #105, #82 ) ;
#105 = PERSON ( 'UNSPECIFIED', 'UNSPECIFIED', 'UNSPECIFIED', ('UNSPECIFIED'), ('UNSPECIFIED'), ('UNSPECIFIED') ) ;
#106 = AXIS2_PLACEMENT_3D ( 'NONE', #127, #88, #142 ) ;
#107 = CYLINDRICAL_SURFACE ( 'NONE', #75, 15.00000000000000000 ) ;
#108 = FACE_OUTER_BOUND ( 'NONE', #118, .T. ) ;
#109 = APPROVAL ( #54, 'UNSPECIFIED' ) ;
#110 = ADVANCED_FACE ( 'NONE', ( #133 ), #34, .F. ) ;
#111 = ORIENTED_EDGE ( 'NONE', *, *, #114, .T. ) ;
#112 = CARTESIAN_POINT ( 'NONE',  ( 0.0000000000000000000, 0.0000000000000000000, -1.500000000000000000 ) ) ;
#113 = EDGE_CURVE ( 'NONE', #44, #40, #81, .T. ) ;
#114 = EDGE_CURVE ( 'NONE', #44, #145, #69, .T. ) ;
#115 = AXIS2_PLACEMENT_3D ( 'NONE', #21, #86, #85 ) ;
#116 = MECHANICAL_CONTEXT ( 'NONE', #170, 'mechanical' ) ;
#117 = ADVANCED_FACE ( 'NONE', ( #47 ), #64, .T. ) ;
#118 = EDGE_LOOP ( 'NONE', ( #172, #87 ) ) ;
#119 = APPROVAL ( #89, 'UNSPECIFIED' ) ;
#120 = CC_DESIGN_APPROVAL ( #37, ( #101 ) ) ;
#121 = PERSON_AND_ORGANIZATION ( #105, #82 ) ;
#122 = DIRECTION ( 'NONE',  ( -0.0000000000000000000, -0.0000000000000000000, -1.000000000000000000 ) ) ;
#123 = CC_DESIGN_PERSON_AND_ORGANIZATION_ASSIGNMENT ( #100, #78, ( #46 ) ) ;
#124 = CARTESIAN_POINT ( 'NONE',  ( -15.00000000000000000, 0.0000000000000000000, 1.500000000000000000 ) ) ;
#125 = PERSON_AND_ORGANIZATION ( #105, #82 ) ;
#126 = CLOSED_SHELL ( 'NONE', ( #117, #160, #11, #110 ) ) ;
#127 = CARTESIAN_POINT ( 'NONE',  ( 0.0000000000000000000, 0.0000000000000000000, 0.0000000000000000000 ) ) ;
#128 = COORDINATED_UNIVERSAL_TIME_OFFSET ( 5, 0, .BEHIND. ) ;
#129 = CC_DESIGN_DATE_AND_TIME_ASSIGNMENT ( #90, #140, ( #101 ) ) ;
#130 = EDGE_CURVE ( 'NONE', #145, #3, #143, .T. ) ;
#131 = LOCAL_TIME ( 10, 34, 46.00000000000000000, #68 ) ;
#132 = CC_DESIGN_SECURITY_CLASSIFICATION ( #101, ( #16 ) ) ;
#133 = FACE_OUTER_BOUND ( 'NONE', #13, .T. ) ;
#134 = EDGE_CURVE ( 'NONE', #40, #3, #45, .T. ) ;
#135 = ORIENTED_EDGE ( 'NONE', *, *, #130, .T. ) ;
#136 = CC_DESIGN_APPROVAL ( #119, ( #16 ) ) ;
#137 = SHAPE_DEFINITION_REPRESENTATION ( #146, #1 ) ;
#138 = CARTESIAN_POINT ( 'NONE',  ( 15.00000000000000000, 1.836970198721029600E-015, 1.500000000000000000 ) ) ;
#139 = APPROVAL_DATE_TIME ( #22, #37 ) ;
#140 = DATE_TIME_ROLE ( 'classification_date' ) ;
#141 = DIRECTION ( 'NONE',  ( -1.000000000000000000, 0.0000000000000000000, 0.0000000000000000000 ) ) ;
#142 = DIRECTION ( 'NONE',  ( 1.000000000000000000, 0.0000000000000000000, 0.0000000000000000000 ) ) ;
#143 = CIRCLE ( 'NONE', #28, 15.00000000000000000 ) ;
#144 = UNCERTAINTY_MEASURE_WITH_UNIT (LENGTH_MEASURE( 1.000000000000000100E-005 ), #9, 'distance_accuracy_value', 'NONE');
#145 = VERTEX_POINT ( 'NONE', #83 ) ;
#146 = PRODUCT_DEFINITION_SHAPE ( 'NONE', 'NONE',  #161 ) ;
#147 = LOCAL_TIME ( 10, 34, 46.00000000000000000, #17 ) ;
#148 = ORIENTED_EDGE ( 'NONE', *, *, #130, .F. ) ;
#149 = APPROVAL_PERSON_ORGANIZATION ( #70, #37, #65 ) ;
#150 = CALENDAR_DATE ( 2019, 7, 1 ) ;
#151 = ORIENTED_EDGE ( 'NONE', *, *, #134, .F. ) ;
#152 = CARTESIAN_POINT ( 'NONE',  ( 0.0000000000000000000, 0.0000000000000000000, -1.500000000000000000 ) ) ;
#153 = PERSON_AND_ORGANIZATION ( #105, #82 ) ;
#154 = CARTESIAN_POINT ( 'NONE',  ( 0.0000000000000000000, 0.0000000000000000000, 1.500000000000000000 ) ) ;
#155 = DIRECTION ( 'NONE',  ( -0.0000000000000000000, -0.0000000000000000000, -1.000000000000000000 ) ) ;
#156 = APPROVAL_ROLE ( '' ) ;
#157 = APPROVAL_PERSON_ORGANIZATION ( #121, #119, #168 ) ;
#158 = CARTESIAN_POINT ( 'NONE',  ( 0.0000000000000000000, 0.0000000000000000000, 1.500000000000000000 ) ) ;
#159 = EDGE_CURVE ( 'NONE', #40, #44, #92, .T. ) ;
#160 = ADVANCED_FACE ( 'NONE', ( #23 ), #107, .T. ) ;
#161 = PRODUCT_DEFINITION ( 'UNKNOWN', '', #16, #12 ) ;
#162 = VECTOR ( 'NONE', #76, 1000.000000000000000 ) ;
#163 = PERSON_AND_ORGANIZATION ( #105, #82 ) ;
#164 = AXIS2_PLACEMENT_3D ( 'NONE', #112, #165, #97 ) ;
#165 = DIRECTION ( 'NONE',  ( 0.0000000000000000000, 0.0000000000000000000, 1.000000000000000000 ) ) ;
#166 = DIRECTION ( 'NONE',  ( 1.000000000000000000, 0.0000000000000000000, -0.0000000000000000000 ) ) ;
#167 = LOCAL_TIME ( 10, 34, 46.00000000000000000, #29 ) ;
#168 = APPROVAL_ROLE ( '' ) ;
#169 = PERSON_AND_ORGANIZATION_ROLE ( 'creator' ) ;
#170 = APPLICATION_CONTEXT ( 'configuration controlled 3d designs of mechanical parts and assemblies' ) ;
#171 = PERSON_AND_ORGANIZATION_ROLE ( 'design_supplier' ) ;
#172 = ORIENTED_EDGE ( 'NONE', *, *, #159, .T. ) ;
#173 = SECURITY_CLASSIFICATION_LEVEL ( 'unclassified' ) ;
#174 = ORIENTED_EDGE ( 'NONE', *, *, #60, .F. ) ;
#175 = CC_DESIGN_PERSON_AND_ORGANIZATION_ASSIGNMENT ( #163, #10, ( #161 ) ) ;
ENDSEC;
END-ISO-10303-21;
